  0
SECTION
  2
HEADER
  9
$ACADVER
  1
AC1009
  9
$FILLMODE
 70
     1
  9
$TILEMODE
 70
     1
  9
$TDCREATE
 40
2428028.851377
  9
$TDUPDATE
 40
2428028.851377
  9
$HANDLING
 70
     1
  9
$HANDSEED
  5
0000000000000431
  9
$LTSCALE
 40
1.0
  9
$EXTMIN
 10
0.284369
 20
1.023249
 30
0.0
  9
$EXTMAX
 10
3.896804
 20
3.228506
 30
0.0
  9
$LIMMIN
 10
0.284369
 20
1.023249
  9
$LIMMAX
 10
3.896804
 20
3.228506
  9
$PSLTSCALE
 70
     1
  9
$PEXTMIN
 10
0.284369
 20
1.023249
 30
0.0
  9
$PEXTMAX
 10
3.896804
 20
3.228506
 30
0.0
  9
$PLIMMIN
 10
0.284369
 20
1.023249
  9
$PLIMMAX
 10
3.896804
 20
3.228506
  9
$DWGCODEPAGE
  3
ansi_1251
  9
$CMLSTYLE
  2
STANDARD
  0
ENDSEC
  0
SECTION
  2
CLASSES
  0
ENDSEC
  0
SECTION
  2
TABLES
  0
TABLE
  2
BLOCK_RECORD
  5
4f
100
AcDbSymbolTable
 70
 -9648
  0
BLOCK_RECORD
  5
50
100
AcDbSymbolTableRecord
100
AcDbBlockTableRecord
  2
*MODEL_SPACE
  0
BLOCK_RECORD
  5
51
100
AcDbSymbolTableRecord
100
AcDbBlockTableRecord
  2
*PAPER_SPACE
  0
BLOCK_RECORD
  5
52
100
AcDbSymbolTableRecord
100
AcDbBlockTableRecord
  2
HARTE_DAMMUNG_1
  0
BLOCK_RECORD
  5
53
100
AcDbSymbolTableRecord
100
AcDbBlockTableRecord
  2
WEICHE_DAMMUNG_2
  0
BLOCK_RECORD
  5
54
100
AcDbSymbolTableRecord
100
AcDbBlockTableRecord
  2
WEICHE_DAMMUNG_3
  0
BLOCK_RECORD
  5
55
100
AcDbSymbolTableRecord
100
AcDbBlockTableRecord
  2
WEICHE_DAMMUNG_4
  0
BLOCK_RECORD
  5
56
100
AcDbSymbolTableRecord
100
AcDbBlockTableRecord
  2
WEICHE_DAMMUNG_5
  0
BLOCK_RECORD
  5
57
100
AcDbSymbolTableRecord
100
AcDbBlockTableRecord
  2
ABDICHTUNG_PARAMETRISCH_6
  0
BLOCK_RECORD
  5
58
100
AcDbSymbolTableRecord
100
AcDbBlockTableRecord
  2
HARTE_DAMMUNG_7
  0
BLOCK_RECORD
  5
59
100
AcDbSymbolTableRecord
100
AcDbBlockTableRecord
  2
ABDICHTUNG_PARAMETRISCH_8
  0
BLOCK_RECORD
  5
5a
100
AcDbSymbolTableRecord
100
AcDbBlockTableRecord
  2
ABDICHTUNG_PARAMETRISCH_9
  0
BLOCK_RECORD
  5
5b
100
AcDbSymbolTableRecord
100
AcDbBlockTableRecord
  2
HARTE_DAMMUNG_10
  0
BLOCK_RECORD
  5
5c
100
AcDbSymbolTableRecord
100
AcDbBlockTableRecord
  2
FILL_1
  0
BLOCK_RECORD
  5
5d
100
AcDbSymbolTableRecord
100
AcDbBlockTableRecord
  2
FILL_2
  0
BLOCK_RECORD
  5
5e
100
AcDbSymbolTableRecord
100
AcDbBlockTableRecord
  2
FILL_3
  0
BLOCK_RECORD
  5
5f
100
AcDbSymbolTableRecord
100
AcDbBlockTableRecord
  2
FILL_4
  0
BLOCK_RECORD
  5
60
100
AcDbSymbolTableRecord
100
AcDbBlockTableRecord
  2
FILL_5
  0
BLOCK_RECORD
  5
61
100
AcDbSymbolTableRecord
100
AcDbBlockTableRecord
  2
FILL_6
  0
BLOCK_RECORD
  5
62
100
AcDbSymbolTableRecord
100
AcDbBlockTableRecord
  2
FILL_7
  0
BLOCK_RECORD
  5
63
100
AcDbSymbolTableRecord
100
AcDbBlockTableRecord
  2
FILL_8
  0
BLOCK_RECORD
  5
64
100
AcDbSymbolTableRecord
100
AcDbBlockTableRecord
  2
FILL_9
  0
BLOCK_RECORD
  5
65
100
AcDbSymbolTableRecord
100
AcDbBlockTableRecord
  2
FILL_10
  0
BLOCK_RECORD
  5
66
100
AcDbSymbolTableRecord
100
AcDbBlockTableRecord
  2
FILL_11
  0
BLOCK_RECORD
  5
67
100
AcDbSymbolTableRecord
100
AcDbBlockTableRecord
  2
FILL_12
  0
BLOCK_RECORD
  5
68
100
AcDbSymbolTableRecord
100
AcDbBlockTableRecord
  2
FILL_13
  0
BLOCK_RECORD
  5
69
100
AcDbSymbolTableRecord
100
AcDbBlockTableRecord
  2
FILL_14
  0
BLOCK_RECORD
  5
6a
100
AcDbSymbolTableRecord
100
AcDbBlockTableRecord
  2
FILL_15
  0
BLOCK_RECORD
  5
6b
100
AcDbSymbolTableRecord
100
AcDbBlockTableRecord
  2
FILL_16
  0
BLOCK_RECORD
  5
6c
100
AcDbSymbolTableRecord
100
AcDbBlockTableRecord
  2
FILL_17
  0
BLOCK_RECORD
  5
6d
100
AcDbSymbolTableRecord
100
AcDbBlockTableRecord
  2
FILL_18
  0
BLOCK_RECORD
  5
6e
100
AcDbSymbolTableRecord
100
AcDbBlockTableRecord
  2
FILL_19
  0
BLOCK_RECORD
  5
6f
100
AcDbSymbolTableRecord
100
AcDbBlockTableRecord
  2
FILL_20
  0
BLOCK_RECORD
  5
70
100
AcDbSymbolTableRecord
100
AcDbBlockTableRecord
  2
FILL_21
  0
BLOCK_RECORD
  5
71
100
AcDbSymbolTableRecord
100
AcDbBlockTableRecord
  2
FILL_22
  0
BLOCK_RECORD
  5
72
100
AcDbSymbolTableRecord
100
AcDbBlockTableRecord
  2
FILL_23
  0
BLOCK_RECORD
  5
73
100
AcDbSymbolTableRecord
100
AcDbBlockTableRecord
  2
FILL_24
  0
BLOCK_RECORD
  5
74
100
AcDbSymbolTableRecord
100
AcDbBlockTableRecord
  2
FILL_25
  0
BLOCK_RECORD
  5
75
100
AcDbSymbolTableRecord
100
AcDbBlockTableRecord
  2
FILL_26
  0
BLOCK_RECORD
  5
76
100
AcDbSymbolTableRecord
100
AcDbBlockTableRecord
  2
TEXT_1
  0
BLOCK_RECORD
  5
77
100
AcDbSymbolTableRecord
100
AcDbBlockTableRecord
  2
TEXT_2
  0
BLOCK_RECORD
  5
78
100
AcDbSymbolTableRecord
100
AcDbBlockTableRecord
  2
TEXT_3
  0
BLOCK_RECORD
  5
79
100
AcDbSymbolTableRecord
100
AcDbBlockTableRecord
  2
TEXT_4
  0
ENDTAB
  0
TABLE
  2
APPID
  5
7a
100
AcDbSymbolTable
 70
     1
  0
APPID
  5
4d
100
AcDbSymbolTableRecord
100
AcDbRegAppTableRecord
  2
ACAD
 70
    64
  0
ENDTAB
  0
TABLE
  2
STYLE
  5
7b
100
AcDbSymbolTable
 70
     2
  0
STYLE
  5
4b
100
AcDbSymbolTableRecord
100
AcDbTextStyleTableRecord
  2
STANDARD
 70
    64
 40
0.0
 41
1.0
 50
0.0
 71
     0
 42
0.0
  3
TXT
  4

  0
STYLE
  5
4c
100
AcDbSymbolTableRecord
100
AcDbTextStyleTableRecord
  2

 70
    65
 40
0.0
 41
1.0
 50
0.0
 71
     0
 42
1.0
  3
2_5_2_31.SHX
  4

  0
ENDTAB
  0
TABLE
  2
LTYPE
  5
7c
100
AcDbSymbolTable
 70
    24
  0
LTYPE
  5
2c
100
AcDbSymbolTableRecord
100
AcDbLinetypeTableRecord
  2
CONTINUOUS
 70
    64
  3
Solid line
 72
    65
 73
     0
 40
0.0
  0
LTYPE
  5
2d
100
AcDbSymbolTableRecord
100
AcDbLinetypeTableRecord
  2
BYBLOCK
 70
    64
  3
Solid line
 72
    65
 73
     0
 40
0.0
  0
LTYPE
  5
2e
100
AcDbSymbolTableRecord
100
AcDbLinetypeTableRecord
  2
BYLAYER
 70
    64
  3
Solid line
 72
    65
 73
     0
 40
0.0
  0
LTYPE
  5
2f
100
AcDbSymbolTableRecord
100
AcDbLinetypeTableRecord
  2
PUNKTLINIE__ENG
 70
    64
  3
Punktlinie, eng
 72
    65
 73
     2
 40
0.017639
 49
0.0
 74
     0
 49
-0.017639
 74
     0
  0
LTYPE
  5
30
100
AcDbSymbolTableRecord
100
AcDbLinetypeTableRecord
  2
PUNKTLINIE
 70
    64
  3
Punktlinie
 72
    65
 73
     2
 40
0.0635
 49
0.0
 74
     0
 49
-0.0635
 74
     0
  0
LTYPE
  5
31
100
AcDbSymbolTableRecord
100
AcDbLinetypeTableRecord
  2
STRICHLINIE
 70
    64
  3
Strichlinie
 72
    65
 73
     2
 40
0.056444
 49
0.028222
 74
     0
 49
-0.028222
 74
     0
  0
LTYPE
  5
32
100
AcDbSymbolTableRecord
100
AcDbLinetypeTableRecord
  2
STRICHLINIE__LANG
 70
    64
  3
Strichlinie, lang
 72
    65
 73
     2
 40
0.105833
 49
0.0635
 74
     0
 49
-0.042333
 74
     0
  0
LTYPE
  5
33
100
AcDbSymbolTableRecord
100
AcDbLinetypeTableRecord
  2
STRICHPUNKTLINIE
 70
    64
  3
Strichpunktlinie
 72
    65
 73
     4
 40
0.067028
 49
0.035278
 74
     0
 49
-0.017639
 74
     0
 49
0.0
 74
     0
 49
-0.014111
 74
     0
  0
LTYPE
  5
34
100
AcDbSymbolTableRecord
100
AcDbLinetypeTableRecord
  2
DOPPELSTRICHLINIE
 70
    64
  3
Doppelstrichlinie
 72
    65
 73
     4
 40
0.109361
 49
0.052917
 74
     0
 49
-0.021167
 74
     0
 49
0.014111
 74
     0
 49
-0.021167
 74
     0
  0
LTYPE
  5
35
100
AcDbSymbolTableRecord
100
AcDbLinetypeTableRecord
  2
DREIFACHSTRICHLINIE
 70
    64
  3
Dreifachstrichlinie
 72
    65
 73
     6
 40
0.144639
 49
0.052917
 74
     0
 49
-0.021167
 74
     0
 49
0.014111
 74
     0
 49
-0.021167
 74
     0
 49
0.014111
 74
     0
 49
-0.021167
 74
     0
  0
LTYPE
  5
36
100
AcDbSymbolTableRecord
100
AcDbLinetypeTableRecord
  2
ZICKZACK
 70
    64
  3
Zickzack
 72
    65
 73
     3
 40
0.028222
 49
0.0
 74
     4
 75
     1
340
4c
 46
0.000222
 50
0.0
 44
0.0
 45
0.0
 49
-0.028222
 74
     0
 49
0.0
 74
     0
  0
LTYPE
  5
37
100
AcDbSymbolTableRecord
100
AcDbLinetypeTableRecord
  2
DOPPELLINIE
 70
    64
  3
Doppellinie
 72
    65
 73
     3
 40
0.028222
 49
0.0
 74
     4
 75
     2
340
4c
 46
0.000222
 50
0.0
 44
0.0
 45
0.0
 49
-0.028222
 74
     0
 49
0.0
 74
     0
  0
LTYPE
  5
38
100
AcDbSymbolTableRecord
100
AcDbLinetypeTableRecord
  2
UNTERBRECHUNGSLINIE
 70
    64
  3
Unterbrechungslinie
 72
    65
 73
     3
 40
0.197556
 49
0.0
 74
     4
 75
     3
340
4c
 46
0.001556
 50
0.0
 44
0.0
 45
0.0
 49
-0.197556
 74
     0
 49
0.0
 74
     0
  0
LTYPE
  5
39
100
AcDbSymbolTableRecord
100
AcDbLinetypeTableRecord
  2
LEITUNG_1
 70
    64
  3
Leitung 1
 72
    65
 73
     3
 40
0.197556
 49
0.0
 74
     4
 75
     4
340
4c
 46
0.001556
 50
0.0
 44
0.0
 45
0.0
 49
-0.197556
 74
     0
 49
0.0
 74
     0
  0
LTYPE
  5
3a
100
AcDbSymbolTableRecord
100
AcDbLinetypeTableRecord
  2
PFEIL
 70
    64
  3
Pfeil
 72
    65
 73
     3
 40
0.204611
 49
0.0
 74
     4
 75
     5
340
4c
 46
0.001389
 50
0.0
 44
0.0
 45
0.0
 49
-0.204611
 74
     0
 49
0.0
 74
     0
  0
LTYPE
  5
3b
100
AcDbSymbolTableRecord
100
AcDbLinetypeTableRecord
  2
WELLE
 70
    64
  3
Welle
 72
    65
 73
     3
 40
0.056444
 49
0.0
 74
     4
 75
     6
340
4c
 46
0.000444
 50
0.0
 44
0.0
 45
0.0
 49
-0.056444
 74
     0
 49
0.0
 74
     0
  0
LTYPE
  5
3c
100
AcDbSymbolTableRecord
100
AcDbLinetypeTableRecord
  2
X
 70
    64
  3
X
 72
    65
 73
     3
 40
0.197556
 49
0.0
 74
     4
 75
     7
340
4c
 46
0.001556
 50
0.0
 44
0.0
 45
0.0
 49
-0.197556
 74
     0
 49
0.0
 74
     0
  0
LTYPE
  5
3d
100
AcDbSymbolTableRecord
100
AcDbLinetypeTableRecord
  2
LEITUNG_2
 70
    64
  3
Leitung 2
 72
    65
 73
     3
 40
0.197556
 49
0.0
 74
     4
 75
     8
340
4c
 46
0.001556
 50
0.0
 44
0.0
 45
0.0
 49
-0.197556
 74
     0
 49
0.0
 74
     0
  0
LTYPE
  5
3e
100
AcDbSymbolTableRecord
100
AcDbLinetypeTableRecord
  2
KREISE
 70
    64
  3
Kreise
 72
    65
 73
     3
 40
0.197555
 49
0.0
 74
     4
 75
     9
340
4c
 46
0.001556
 50
0.0
 44
0.0
 45
0.0
 49
-0.197555
 74
     0
 49
0.0
 74
     0
  0
LTYPE
  5
3f
100
AcDbSymbolTableRecord
100
AcDbLinetypeTableRecord
  2
RECHTECKE
 70
    64
  3
Rechtecke
 72
    65
 73
     3
 40
0.197556
 49
0.0
 74
     4
 75
    10
340
4c
 46
0.001556
 50
0.0
 44
0.0
 45
0.0
 49
-0.197556
 74
     0
 49
0.0
 74
     0
  0
LTYPE
  5
40
100
AcDbSymbolTableRecord
100
AcDbLinetypeTableRecord
  2
ZICKZACK_GROB
 70
    64
  3
Zickzack groЯ
 72
    65
 73
     3
 40
0.056444
 49
0.0
 74
     4
 75
    11
340
4c
 46
0.000444
 50
0.0
 44
0.0
 45
0.0
 49
-0.056444
 74
     0
 49
0.0
 74
     0
  0
LTYPE
  5
41
100
AcDbSymbolTableRecord
100
AcDbLinetypeTableRecord
  2
KREUZ
 70
    64
  3
Kreuz
 72
    65
 73
     3
 40
0.109361
 49
0.0
 74
     4
 75
    12
340
4c
 46
0.000444
 50
0.0
 44
0.0
 45
0.0
 49
-0.109361
 74
     0
 49
0.0
 74
     0
  0
LTYPE
  5
42
100
AcDbSymbolTableRecord
100
AcDbLinetypeTableRecord
  2
STRICHLINIE_ENG
 70
    64
  3
Strichlinie eng
 72
    65
 73
     2
 40
0.3175
 49
0.176389
 74
     0
 49
-0.141111
 74
     0
  0
LTYPE
  5
43
100
AcDbSymbolTableRecord
100
AcDbLinetypeTableRecord
  2
ACHSE
 70
    64
  3
Achse
 72
    65
 73
     4
 40
0.023
 49
0.0
 74
     0
 49
-0.008
 74
     0
 49
0.015
 74
     0
 49
0.0
 74
     0
  0
ENDTAB
  0
TABLE
  2
LAYER
  5
7d
100
AcDbSymbolTable
 70
     7
  0
LAYER
  5
44
100
AcDbSymbolTableRecord
100
AcDbLayerTableRecord
  2
0
 70
    64
 62
     7
  6
CONTINUOUS
  0
LAYER
  5
45
100
AcDbSymbolTableRecord
100
AcDbLayerTableRecord
  2
_
 70
    64
 62
     7
  6
CONTINUOUS
  0
LAYER
  5
46
100
AcDbSymbolTableRecord
100
AcDbLayerTableRecord
  2
OBJEKTE
 70
    64
 62
     7
  6
CONTINUOUS
  0
LAYER
  5
47
100
AcDbSymbolTableRecord
100
AcDbLayerTableRecord
  2
LINIEN
 70
    64
 62
     7
  6
CONTINUOUS
  0
LAYER
  5
48
100
AcDbSymbolTableRecord
100
AcDbLayerTableRecord
  2
STRUKTUR
 70
    64
 62
     7
  6
CONTINUOUS
  0
LAYER
  5
49
100
AcDbSymbolTableRecord
100
AcDbLayerTableRecord
  2
FARBEN
 70
    64
 62
     7
  6
CONTINUOUS
  0
LAYER
  5
4a
100
AcDbSymbolTableRecord
100
AcDbLayerTableRecord
  2
TEXT
 70
    64
 62
     7
  6
CONTINUOUS
  0
ENDTAB
  0
TABLE
  2
VIEW
  5
7e
100
AcDbSymbolTable
 70
     0
  0
ENDTAB
  0
TABLE
  2
UCS
  5
7f
100
AcDbSymbolTable
 70
     0
  0
ENDTAB
  0
TABLE
  2
VPORT
  5
80
100
AcDbSymbolTable
 70
     1
  0
VPORT
  5
2b
100
AcDbSymbolTableRecord
100
AcDbViewportTableRecord
  2
*ACTIVE
 70
    64
 10
0.0
 20
0.0
 11
1.0
 21
1.0
 12
2.090586
 22
2.125878
 13
0.0
 23
0.0
 14
0.05
 24
0.05
 15
1.0
 25
1.0
 16
0.0
 26
0.0
 36
1.0
 17
0.0
 27
0.0
 37
0.0
 40
2.205257
 41
1.638102
 42
50.0
 43
0.0
 44
0.0
 50
0.0
 51
0.0
 71
     0
 72
   100
 73
     1
 74
     1
 75
     0
 76
     1
 77
     0
 78
     0
  0
ENDTAB
  0
TABLE
  2
DIMSTYLE
  5
81
100
AcDbSymbolTable
 70
     1
  0
DIMSTYLE
105
4e
100
AcDbSymbolTableRecord
100
AcDbDimStyleTableRecord
  2
STANDARD
 70
    64
  3

  4

  5

  6

  7

 40
1.0
 41
0.18
 42
0.0625
 43
0.38
 44
0.18
 45
0.0
 46
0.0
 47
0.0
 48
0.0
 71
     0
 72
     0
 73
     1
 74
     1
 75
     0
 76
     0
 77
     0
 78
     0
140
0.18
141
0.09
142
0.0
143
25.4
144
1.0
145
0.0
146
1.0
147
0.0
170
     0
171
     2
172
     0
173
     0
174
     0
175
     0
176
     0
177
     0
178
     0
270
2
271
4
272
4
273
2
274
2
275
0
280
0
281
0
282
0
283
1
284
0
285
0
286
0
287
3
288
0
  0
ENDTAB
  0
ENDSEC
  0
SECTION
  2
BLOCKS
  0
BLOCK
  5
82
100
AcDbEntity
100
AcDbBlockBegin
  8
0
  2
*MODEL_SPACE
 70
     1
 10
0.0
 20
0.0
 30
0.0
  0
ENDBLK
  5
83
100
AcDbEntity
100
AcDbBlockEnd
  0
BLOCK
  5
84
100
AcDbEntity
100
AcDbBlockBegin
  8
0
  2
*PAPER_SPACE
 70
     1
 10
0.0
 20
0.0
 30
0.0
  0
ENDBLK
  5
85
100
AcDbEntity
100
AcDbBlockEnd
  0
BLOCK
  5
86
100
AcDbEntity
100
AcDbBlockBegin
  8
0
  2
HARTE_DAMMUNG_1
 70
    64
 10
0.0
 20
0.0
 30
0.0
  3
harte Dдmmung_1
  0
LINE
  5
87
100
AcDbEntity
100
AcDbLine
  8
0
 62
     0
 10
0.0
 20
0.0
 30
0.0
 11
0.083333
 21
0.2
 31
0.0
  0
LINE
  5
88
100
AcDbEntity
100
AcDbLine
  8
0
 62
     0
 10
0.166667
 20
0.0
 30
0.0
 11
0.083333
 21
0.2
 31
0.0
  0
LINE
  5
89
100
AcDbEntity
100
AcDbLine
  8
0
 62
     0
 10
0.166667
 20
0.0
 30
0.0
 11
0.25
 21
0.2
 31
0.0
  0
LINE
  5
8a
100
AcDbEntity
100
AcDbLine
  8
0
 62
     0
 10
0.333333
 20
0.0
 30
0.0
 11
0.25
 21
0.2
 31
0.0
  0
LINE
  5
8b
100
AcDbEntity
100
AcDbLine
  8
0
 62
     0
 10
0.333333
 20
0.0
 30
0.0
 11
0.416667
 21
0.2
 31
0.0
  0
LINE
  5
8c
100
AcDbEntity
100
AcDbLine
  8
0
 62
     0
 10
0.5
 20
0.0
 30
0.0
 11
0.416667
 21
0.2
 31
0.0
  0
ENDBLK
  5
8d
100
AcDbEntity
100
AcDbBlockEnd
  0
BLOCK
  5
8e
100
AcDbEntity
100
AcDbBlockBegin
  8
0
  2
WEICHE_DAMMUNG_2
 70
    64
 10
0.0
 20
0.0
 30
0.0
  3
weiche Dдmmung_2
  0
LINE
  5
8f
100
AcDbEntity
100
AcDbLine
  8
0
 62
     0
 10
0.0
 20
0.0375
 30
0.0
 11
0.0375
 21
0.1625
 31
0.0
  0
LINE
  5
90
100
AcDbEntity
100
AcDbLine
  8
0
 62
     0
 10
0.075
 20
0.0375
 30
0.0
 11
0.0375
 21
0.1625
 31
0.0
  0
LINE
  5
91
100
AcDbEntity
100
AcDbLine
  8
0
 62
     0
 10
0.075
 20
0.0375
 30
0.0
 11
0.1125
 21
0.1625
 31
0.0
  0
LINE
  5
92
100
AcDbEntity
100
AcDbLine
  8
0
 62
     0
 10
0.15
 20
0.0375
 30
0.0
 11
0.1125
 21
0.1625
 31
0.0
  0
LINE
  5
93
100
AcDbEntity
100
AcDbLine
  8
0
 62
     0
 10
0.15
 20
0.0375
 30
0.0
 11
0.1875
 21
0.1625
 31
0.0
  0
LINE
  5
94
100
AcDbEntity
100
AcDbLine
  8
0
 62
     0
 10
0.225
 20
0.0375
 30
0.0
 11
0.1875
 21
0.1625
 31
0.0
  0
LINE
  5
95
100
AcDbEntity
100
AcDbLine
  8
0
 62
     0
 10
0.225
 20
0.0375
 30
0.0
 11
0.2625
 21
0.1625
 31
0.0
  0
LINE
  5
96
100
AcDbEntity
100
AcDbLine
  8
0
 62
     0
 10
0.3
 20
0.0375
 30
0.0
 11
0.2625
 21
0.1625
 31
0.0
  0
ARC
  5
97
100
AcDbEntity
100
AcDbArc
  8
0
 62
     0
 10
0.0
 20
0.1625
 30
0.0
 40
0.0375
 50
0.0
 51
90.0
  0
ARC
  5
98
100
AcDbEntity
100
AcDbArc
  8
0
 62
     0
 10
0.075
 20
0.1625
 30
0.0
 40
0.0375
 50
90.0
 51
180.0
  0
ARC
  5
99
100
AcDbEntity
100
AcDbArc
  8
0
 62
     0
 10
0.0375
 20
0.0375
 30
0.0
 40
0.0375
 50
180.0
 51
270.0
  0
ARC
  5
9a
100
AcDbEntity
100
AcDbArc
  8
0
 62
     0
 10
0.0375
 20
0.0375
 30
0.0
 40
0.0375
 50
270.0
 51
0.0
  0
ARC
  5
9b
100
AcDbEntity
100
AcDbArc
  8
0
 62
     0
 10
0.075
 20
0.1625
 30
0.0
 40
0.0375
 50
0.0
 51
90.0
  0
ARC
  5
9c
100
AcDbEntity
100
AcDbArc
  8
0
 62
     0
 10
0.15
 20
0.1625
 30
0.0
 40
0.0375
 50
90.0
 51
180.0
  0
ARC
  5
9d
100
AcDbEntity
100
AcDbArc
  8
0
 62
     0
 10
0.1125
 20
0.0375
 30
0.0
 40
0.0375
 50
180.0
 51
270.0
  0
ARC
  5
9e
100
AcDbEntity
100
AcDbArc
  8
0
 62
     0
 10
0.1125
 20
0.0375
 30
0.0
 40
0.0375
 50
270.0
 51
0.0
  0
ARC
  5
9f
100
AcDbEntity
100
AcDbArc
  8
0
 62
     0
 10
0.15
 20
0.1625
 30
0.0
 40
0.0375
 50
0.0
 51
90.0
  0
ARC
  5
a0
100
AcDbEntity
100
AcDbArc
  8
0
 62
     0
 10
0.225
 20
0.1625
 30
0.0
 40
0.0375
 50
90.0
 51
180.0
  0
ARC
  5
a1
100
AcDbEntity
100
AcDbArc
  8
0
 62
     0
 10
0.1875
 20
0.0375
 30
0.0
 40
0.0375
 50
180.0
 51
270.0
  0
ARC
  5
a2
100
AcDbEntity
100
AcDbArc
  8
0
 62
     0
 10
0.1875
 20
0.0375
 30
0.0
 40
0.0375
 50
270.0
 51
0.0
  0
ARC
  5
a3
100
AcDbEntity
100
AcDbArc
  8
0
 62
     0
 10
0.225
 20
0.1625
 30
0.0
 40
0.0375
 50
0.0
 51
90.0
  0
ARC
  5
a4
100
AcDbEntity
100
AcDbArc
  8
0
 62
     0
 10
0.3
 20
0.1625
 30
0.0
 40
0.0375
 50
90.0
 51
180.0
  0
ARC
  5
a5
100
AcDbEntity
100
AcDbArc
  8
0
 62
     0
 10
0.2625
 20
0.0375
 30
0.0
 40
0.0375
 50
180.0
 51
270.0
  0
ARC
  5
a6
100
AcDbEntity
100
AcDbArc
  8
0
 62
     0
 10
0.2625
 20
0.0375
 30
0.0
 40
0.0375
 50
270.0
 51
0.0
  0
ENDBLK
  5
a7
100
AcDbEntity
100
AcDbBlockEnd
  0
BLOCK
  5
a8
100
AcDbEntity
100
AcDbBlockBegin
  8
0
  2
WEICHE_DAMMUNG_3
 70
    64
 10
0.0
 20
0.0
 30
0.0
  3
weiche Dдmmung_3
  0
LINE
  5
a9
100
AcDbEntity
100
AcDbLine
  8
0
 62
     0
 10
0.0
 20
0.023249
 30
0.0
 11
0.023249
 21
0.096751
 31
0.0
  0
LINE
  5
aa
100
AcDbEntity
100
AcDbLine
  8
0
 62
     0
 10
0.046497
 20
0.023249
 30
0.0
 11
0.023249
 21
0.096751
 31
0.0
  0
LINE
  5
ab
100
AcDbEntity
100
AcDbLine
  8
0
 62
     0
 10
0.046497
 20
0.023249
 30
0.0
 11
0.069746
 21
0.096751
 31
0.0
  0
LINE
  5
ac
100
AcDbEntity
100
AcDbLine
  8
0
 62
     0
 10
0.092995
 20
0.023249
 30
0.0
 11
0.069746
 21
0.096751
 31
0.0
  0
LINE
  5
ad
100
AcDbEntity
100
AcDbLine
  8
0
 62
     0
 10
0.092995
 20
0.023249
 30
0.0
 11
0.116244
 21
0.096751
 31
0.0
  0
LINE
  5
ae
100
AcDbEntity
100
AcDbLine
  8
0
 62
     0
 10
0.139492
 20
0.023249
 30
0.0
 11
0.116244
 21
0.096751
 31
0.0
  0
LINE
  5
af
100
AcDbEntity
100
AcDbLine
  8
0
 62
     0
 10
0.139492
 20
0.023249
 30
0.0
 11
0.162741
 21
0.096751
 31
0.0
  0
LINE
  5
b0
100
AcDbEntity
100
AcDbLine
  8
0
 62
     0
 10
0.18599
 20
0.023249
 30
0.0
 11
0.162741
 21
0.096751
 31
0.0
  0
ARC
  5
b1
100
AcDbEntity
100
AcDbArc
  8
0
 62
     0
 10
0.0
 20
0.096751
 30
0.0
 40
0.023249
 50
0.0
 51
90.0
  0
ARC
  5
b2
100
AcDbEntity
100
AcDbArc
  8
0
 62
     0
 10
0.046497
 20
0.096751
 30
0.0
 40
0.023249
 50
90.0
 51
180.0
  0
ARC
  5
b3
100
AcDbEntity
100
AcDbArc
  8
0
 62
     0
 10
0.023249
 20
0.023249
 30
0.0
 40
0.023249
 50
180.0
 51
270.0
  0
ARC
  5
b4
100
AcDbEntity
100
AcDbArc
  8
0
 62
     0
 10
0.023249
 20
0.023249
 30
0.0
 40
0.023249
 50
270.0
 51
0.0
  0
ARC
  5
b5
100
AcDbEntity
100
AcDbArc
  8
0
 62
     0
 10
0.046497
 20
0.096751
 30
0.0
 40
0.023249
 50
0.0
 51
90.0
  0
ARC
  5
b6
100
AcDbEntity
100
AcDbArc
  8
0
 62
     0
 10
0.092995
 20
0.096751
 30
0.0
 40
0.023249
 50
90.0
 51
180.0
  0
ARC
  5
b7
100
AcDbEntity
100
AcDbArc
  8
0
 62
     0
 10
0.069746
 20
0.023249
 30
0.0
 40
0.023249
 50
180.0
 51
270.0
  0
ARC
  5
b8
100
AcDbEntity
100
AcDbArc
  8
0
 62
     0
 10
0.069746
 20
0.023249
 30
0.0
 40
0.023249
 50
270.0
 51
0.0
  0
ARC
  5
b9
100
AcDbEntity
100
AcDbArc
  8
0
 62
     0
 10
0.092995
 20
0.096751
 30
0.0
 40
0.023249
 50
0.0
 51
90.0
  0
ARC
  5
ba
100
AcDbEntity
100
AcDbArc
  8
0
 62
     0
 10
0.139492
 20
0.096751
 30
0.0
 40
0.023249
 50
90.0
 51
180.0
  0
ARC
  5
bb
100
AcDbEntity
100
AcDbArc
  8
0
 62
     0
 10
0.116244
 20
0.023249
 30
0.0
 40
0.023249
 50
180.0
 51
270.0
  0
ARC
  5
bc
100
AcDbEntity
100
AcDbArc
  8
0
 62
     0
 10
0.116244
 20
0.023249
 30
0.0
 40
0.023249
 50
270.0
 51
0.0
  0
ARC
  5
bd
100
AcDbEntity
100
AcDbArc
  8
0
 62
     0
 10
0.139492
 20
0.096751
 30
0.0
 40
0.023249
 50
0.0
 51
90.0
  0
ARC
  5
be
100
AcDbEntity
100
AcDbArc
  8
0
 62
     0
 10
0.18599
 20
0.096751
 30
0.0
 40
0.023249
 50
90.0
 51
180.0
  0
ARC
  5
bf
100
AcDbEntity
100
AcDbArc
  8
0
 62
     0
 10
0.162741
 20
0.023249
 30
0.0
 40
0.023249
 50
180.0
 51
270.0
  0
ARC
  5
c0
100
AcDbEntity
100
AcDbArc
  8
0
 62
     0
 10
0.162741
 20
0.023249
 30
0.0
 40
0.023249
 50
270.0
 51
0.0
  0
ENDBLK
  5
c1
100
AcDbEntity
100
AcDbBlockEnd
  0
BLOCK
  5
c2
100
AcDbEntity
100
AcDbBlockBegin
  8
0
  2
WEICHE_DAMMUNG_4
 70
    64
 10
0.0
 20
0.0
 30
0.0
  3
weiche Dдmmung_4
  0
LINE
  5
c3
100
AcDbEntity
100
AcDbLine
  8
0
 62
     0
 10
0.0
 20
0.01025
 30
0.0
 11
0.01025
 21
0.04975
 31
0.0
  0
LINE
  5
c4
100
AcDbEntity
100
AcDbLine
  8
0
 62
     0
 10
0.0205
 20
0.01025
 30
0.0
 11
0.01025
 21
0.04975
 31
0.0
  0
LINE
  5
c5
100
AcDbEntity
100
AcDbLine
  8
0
 62
     0
 10
0.0205
 20
0.01025
 30
0.0
 11
0.03075
 21
0.04975
 31
0.0
  0
LINE
  5
c6
100
AcDbEntity
100
AcDbLine
  8
0
 62
     0
 10
0.041
 20
0.01025
 30
0.0
 11
0.03075
 21
0.04975
 31
0.0
  0
LINE
  5
c7
100
AcDbEntity
100
AcDbLine
  8
0
 62
     0
 10
0.041
 20
0.01025
 30
0.0
 11
0.05125
 21
0.04975
 31
0.0
  0
LINE
  5
c8
100
AcDbEntity
100
AcDbLine
  8
0
 62
     0
 10
0.0615
 20
0.01025
 30
0.0
 11
0.05125
 21
0.04975
 31
0.0
  0
LINE
  5
c9
100
AcDbEntity
100
AcDbLine
  8
0
 62
     0
 10
0.0615
 20
0.01025
 30
0.0
 11
0.07175
 21
0.04975
 31
0.0
  0
LINE
  5
ca
100
AcDbEntity
100
AcDbLine
  8
0
 62
     0
 10
0.082
 20
0.01025
 30
0.0
 11
0.07175
 21
0.04975
 31
0.0
  0
LINE
  5
cb
100
AcDbEntity
100
AcDbLine
  8
0
 62
     0
 10
0.082
 20
0.01025
 30
0.0
 11
0.09225
 21
0.04975
 31
0.0
  0
LINE
  5
cc
100
AcDbEntity
100
AcDbLine
  8
0
 62
     0
 10
0.1025
 20
0.01025
 30
0.0
 11
0.09225
 21
0.04975
 31
0.0
  0
LINE
  5
cd
100
AcDbEntity
100
AcDbLine
  8
0
 62
     0
 10
0.1025
 20
0.01025
 30
0.0
 11
0.11275
 21
0.04975
 31
0.0
  0
LINE
  5
ce
100
AcDbEntity
100
AcDbLine
  8
0
 62
     0
 10
0.123
 20
0.01025
 30
0.0
 11
0.11275
 21
0.04975
 31
0.0
  0
LINE
  5
cf
100
AcDbEntity
100
AcDbLine
  8
0
 62
     0
 10
0.123
 20
0.01025
 30
0.0
 11
0.13325
 21
0.04975
 31
0.0
  0
LINE
  5
d0
100
AcDbEntity
100
AcDbLine
  8
0
 62
     0
 10
0.1435
 20
0.01025
 30
0.0
 11
0.13325
 21
0.04975
 31
0.0
  0
LINE
  5
d1
100
AcDbEntity
100
AcDbLine
  8
0
 62
     0
 10
0.1435
 20
0.01025
 30
0.0
 11
0.15375
 21
0.04975
 31
0.0
  0
LINE
  5
d2
100
AcDbEntity
100
AcDbLine
  8
0
 62
     0
 10
0.164
 20
0.01025
 30
0.0
 11
0.15375
 21
0.04975
 31
0.0
  0
LINE
  5
d3
100
AcDbEntity
100
AcDbLine
  8
0
 62
     0
 10
0.164
 20
0.01025
 30
0.0
 11
0.17425
 21
0.04975
 31
0.0
  0
LINE
  5
d4
100
AcDbEntity
100
AcDbLine
  8
0
 62
     0
 10
0.1845
 20
0.01025
 30
0.0
 11
0.17425
 21
0.04975
 31
0.0
  0
LINE
  5
d5
100
AcDbEntity
100
AcDbLine
  8
0
 62
     0
 10
0.1845
 20
0.01025
 30
0.0
 11
0.19475
 21
0.04975
 31
0.0
  0
LINE
  5
d6
100
AcDbEntity
100
AcDbLine
  8
0
 62
     0
 10
0.205
 20
0.01025
 30
0.0
 11
0.19475
 21
0.04975
 31
0.0
  0
ARC
  5
d7
100
AcDbEntity
100
AcDbArc
  8
0
 62
     0
 10
0.0
 20
0.04975
 30
0.0
 40
0.01025
 50
0.0
 51
90.0
  0
ARC
  5
d8
100
AcDbEntity
100
AcDbArc
  8
0
 62
     0
 10
0.0205
 20
0.04975
 30
0.0
 40
0.01025
 50
90.0
 51
180.0
  0
ARC
  5
d9
100
AcDbEntity
100
AcDbArc
  8
0
 62
     0
 10
0.01025
 20
0.01025
 30
0.0
 40
0.01025
 50
180.0
 51
270.0
  0
ARC
  5
da
100
AcDbEntity
100
AcDbArc
  8
0
 62
     0
 10
0.01025
 20
0.01025
 30
0.0
 40
0.01025
 50
270.0
 51
0.0
  0
ARC
  5
db
100
AcDbEntity
100
AcDbArc
  8
0
 62
     0
 10
0.0205
 20
0.04975
 30
0.0
 40
0.01025
 50
0.0
 51
90.0
  0
ARC
  5
dc
100
AcDbEntity
100
AcDbArc
  8
0
 62
     0
 10
0.041
 20
0.04975
 30
0.0
 40
0.01025
 50
90.0
 51
180.0
  0
ARC
  5
dd
100
AcDbEntity
100
AcDbArc
  8
0
 62
     0
 10
0.03075
 20
0.01025
 30
0.0
 40
0.01025
 50
180.0
 51
270.0
  0
ARC
  5
de
100
AcDbEntity
100
AcDbArc
  8
0
 62
     0
 10
0.03075
 20
0.01025
 30
0.0
 40
0.01025
 50
270.0
 51
0.0
  0
ARC
  5
df
100
AcDbEntity
100
AcDbArc
  8
0
 62
     0
 10
0.041
 20
0.04975
 30
0.0
 40
0.01025
 50
0.0
 51
90.0
  0
ARC
  5
e0
100
AcDbEntity
100
AcDbArc
  8
0
 62
     0
 10
0.0615
 20
0.04975
 30
0.0
 40
0.01025
 50
90.0
 51
180.0
  0
ARC
  5
e1
100
AcDbEntity
100
AcDbArc
  8
0
 62
     0
 10
0.05125
 20
0.01025
 30
0.0
 40
0.01025
 50
180.0
 51
270.0
  0
ARC
  5
e2
100
AcDbEntity
100
AcDbArc
  8
0
 62
     0
 10
0.05125
 20
0.01025
 30
0.0
 40
0.01025
 50
270.0
 51
0.0
  0
ARC
  5
e3
100
AcDbEntity
100
AcDbArc
  8
0
 62
     0
 10
0.0615
 20
0.04975
 30
0.0
 40
0.01025
 50
0.0
 51
90.0
  0
ARC
  5
e4
100
AcDbEntity
100
AcDbArc
  8
0
 62
     0
 10
0.082
 20
0.04975
 30
0.0
 40
0.01025
 50
90.0
 51
180.0
  0
ARC
  5
e5
100
AcDbEntity
100
AcDbArc
  8
0
 62
     0
 10
0.07175
 20
0.01025
 30
0.0
 40
0.01025
 50
180.0
 51
270.0
  0
ARC
  5
e6
100
AcDbEntity
100
AcDbArc
  8
0
 62
     0
 10
0.07175
 20
0.01025
 30
0.0
 40
0.01025
 50
270.0
 51
0.0
  0
ARC
  5
e7
100
AcDbEntity
100
AcDbArc
  8
0
 62
     0
 10
0.082
 20
0.04975
 30
0.0
 40
0.01025
 50
0.0
 51
90.0
  0
ARC
  5
e8
100
AcDbEntity
100
AcDbArc
  8
0
 62
     0
 10
0.1025
 20
0.04975
 30
0.0
 40
0.01025
 50
90.0
 51
180.0
  0
ARC
  5
e9
100
AcDbEntity
100
AcDbArc
  8
0
 62
     0
 10
0.09225
 20
0.01025
 30
0.0
 40
0.01025
 50
180.0
 51
270.0
  0
ARC
  5
ea
100
AcDbEntity
100
AcDbArc
  8
0
 62
     0
 10
0.09225
 20
0.01025
 30
0.0
 40
0.01025
 50
270.0
 51
0.0
  0
ARC
  5
eb
100
AcDbEntity
100
AcDbArc
  8
0
 62
     0
 10
0.1025
 20
0.04975
 30
0.0
 40
0.01025
 50
0.0
 51
90.0
  0
ARC
  5
ec
100
AcDbEntity
100
AcDbArc
  8
0
 62
     0
 10
0.123
 20
0.04975
 30
0.0
 40
0.01025
 50
90.0
 51
180.0
  0
ARC
  5
ed
100
AcDbEntity
100
AcDbArc
  8
0
 62
     0
 10
0.11275
 20
0.01025
 30
0.0
 40
0.01025
 50
180.0
 51
270.0
  0
ARC
  5
ee
100
AcDbEntity
100
AcDbArc
  8
0
 62
     0
 10
0.11275
 20
0.01025
 30
0.0
 40
0.01025
 50
270.0
 51
0.0
  0
ARC
  5
ef
100
AcDbEntity
100
AcDbArc
  8
0
 62
     0
 10
0.123
 20
0.04975
 30
0.0
 40
0.01025
 50
0.0
 51
90.0
  0
ARC
  5
f0
100
AcDbEntity
100
AcDbArc
  8
0
 62
     0
 10
0.1435
 20
0.04975
 30
0.0
 40
0.01025
 50
90.0
 51
180.0
  0
ARC
  5
f1
100
AcDbEntity
100
AcDbArc
  8
0
 62
     0
 10
0.13325
 20
0.01025
 30
0.0
 40
0.01025
 50
180.0
 51
270.0
  0
ARC
  5
f2
100
AcDbEntity
100
AcDbArc
  8
0
 62
     0
 10
0.13325
 20
0.01025
 30
0.0
 40
0.01025
 50
270.0
 51
0.0
  0
ARC
  5
f3
100
AcDbEntity
100
AcDbArc
  8
0
 62
     0
 10
0.1435
 20
0.04975
 30
0.0
 40
0.01025
 50
0.0
 51
90.0
  0
ARC
  5
f4
100
AcDbEntity
100
AcDbArc
  8
0
 62
     0
 10
0.164
 20
0.04975
 30
0.0
 40
0.01025
 50
90.0
 51
180.0
  0
ARC
  5
f5
100
AcDbEntity
100
AcDbArc
  8
0
 62
     0
 10
0.15375
 20
0.01025
 30
0.0
 40
0.01025
 50
180.0
 51
270.0
  0
ARC
  5
f6
100
AcDbEntity
100
AcDbArc
  8
0
 62
     0
 10
0.15375
 20
0.01025
 30
0.0
 40
0.01025
 50
270.0
 51
0.0
  0
ARC
  5
f7
100
AcDbEntity
100
AcDbArc
  8
0
 62
     0
 10
0.164
 20
0.04975
 30
0.0
 40
0.01025
 50
0.0
 51
90.0
  0
ARC
  5
f8
100
AcDbEntity
100
AcDbArc
  8
0
 62
     0
 10
0.1845
 20
0.04975
 30
0.0
 40
0.01025
 50
90.0
 51
180.0
  0
ARC
  5
f9
100
AcDbEntity
100
AcDbArc
  8
0
 62
     0
 10
0.17425
 20
0.01025
 30
0.0
 40
0.01025
 50
180.0
 51
270.0
  0
ARC
  5
fa
100
AcDbEntity
100
AcDbArc
  8
0
 62
     0
 10
0.17425
 20
0.01025
 30
0.0
 40
0.01025
 50
270.0
 51
0.0
  0
ARC
  5
fb
100
AcDbEntity
100
AcDbArc
  8
0
 62
     0
 10
0.1845
 20
0.04975
 30
0.0
 40
0.01025
 50
0.0
 51
90.0
  0
ARC
  5
fc
100
AcDbEntity
100
AcDbArc
  8
0
 62
     0
 10
0.205
 20
0.04975
 30
0.0
 40
0.01025
 50
90.0
 51
180.0
  0
ARC
  5
fd
100
AcDbEntity
100
AcDbArc
  8
0
 62
     0
 10
0.19475
 20
0.01025
 30
0.0
 40
0.01025
 50
180.0
 51
270.0
  0
ARC
  5
fe
100
AcDbEntity
100
AcDbArc
  8
0
 62
     0
 10
0.19475
 20
0.01025
 30
0.0
 40
0.01025
 50
270.0
 51
0.0
  0
ENDBLK
  5
ff
100
AcDbEntity
100
AcDbBlockEnd
  0
BLOCK
  5
100
100
AcDbEntity
100
AcDbBlockBegin
  8
0
  2
WEICHE_DAMMUNG_5
 70
    64
 10
0.0
 20
0.0
 30
0.0
  3
weiche Dдmmung_5
  0
LINE
  5
101
100
AcDbEntity
100
AcDbLine
  8
0
 62
     0
 10
0.0
 20
0.0095
 30
0.0
 11
0.0095
 21
0.0455
 31
0.0
  0
LINE
  5
102
100
AcDbEntity
100
AcDbLine
  8
0
 62
     0
 10
0.019
 20
0.0095
 30
0.0
 11
0.0095
 21
0.0455
 31
0.0
  0
LINE
  5
103
100
AcDbEntity
100
AcDbLine
  8
0
 62
     0
 10
0.019
 20
0.0095
 30
0.0
 11
0.0285
 21
0.0455
 31
0.0
  0
LINE
  5
104
100
AcDbEntity
100
AcDbLine
  8
0
 62
     0
 10
0.038
 20
0.0095
 30
0.0
 11
0.0285
 21
0.0455
 31
0.0
  0
LINE
  5
105
100
AcDbEntity
100
AcDbLine
  8
0
 62
     0
 10
0.038
 20
0.0095
 30
0.0
 11
0.0475
 21
0.0455
 31
0.0
  0
LINE
  5
106
100
AcDbEntity
100
AcDbLine
  8
0
 62
     0
 10
0.057
 20
0.0095
 30
0.0
 11
0.0475
 21
0.0455
 31
0.0
  0
LINE
  5
107
100
AcDbEntity
100
AcDbLine
  8
0
 62
     0
 10
0.057
 20
0.0095
 30
0.0
 11
0.0665
 21
0.0455
 31
0.0
  0
LINE
  5
108
100
AcDbEntity
100
AcDbLine
  8
0
 62
     0
 10
0.076
 20
0.0095
 30
0.0
 11
0.0665
 21
0.0455
 31
0.0
  0
LINE
  5
109
100
AcDbEntity
100
AcDbLine
  8
0
 62
     0
 10
0.076
 20
0.0095
 30
0.0
 11
0.0855
 21
0.0455
 31
0.0
  0
LINE
  5
10a
100
AcDbEntity
100
AcDbLine
  8
0
 62
     0
 10
0.095
 20
0.0095
 30
0.0
 11
0.0855
 21
0.0455
 31
0.0
  0
ARC
  5
10b
100
AcDbEntity
100
AcDbArc
  8
0
 62
     0
 10
0.0
 20
0.0455
 30
0.0
 40
0.0095
 50
0.0
 51
90.0
  0
ARC
  5
10c
100
AcDbEntity
100
AcDbArc
  8
0
 62
     0
 10
0.019
 20
0.0455
 30
0.0
 40
0.0095
 50
90.0
 51
180.0
  0
ARC
  5
10d
100
AcDbEntity
100
AcDbArc
  8
0
 62
     0
 10
0.0095
 20
0.0095
 30
0.0
 40
0.0095
 50
180.0
 51
270.0
  0
ARC
  5
10e
100
AcDbEntity
100
AcDbArc
  8
0
 62
     0
 10
0.0095
 20
0.0095
 30
0.0
 40
0.0095
 50
270.0
 51
0.0
  0
ARC
  5
10f
100
AcDbEntity
100
AcDbArc
  8
0
 62
     0
 10
0.019
 20
0.0455
 30
0.0
 40
0.0095
 50
0.0
 51
90.0
  0
ARC
  5
110
100
AcDbEntity
100
AcDbArc
  8
0
 62
     0
 10
0.038
 20
0.0455
 30
0.0
 40
0.0095
 50
90.0
 51
180.0
  0
ARC
  5
111
100
AcDbEntity
100
AcDbArc
  8
0
 62
     0
 10
0.0285
 20
0.0095
 30
0.0
 40
0.0095
 50
180.0
 51
270.0
  0
ARC
  5
112
100
AcDbEntity
100
AcDbArc
  8
0
 62
     0
 10
0.0285
 20
0.0095
 30
0.0
 40
0.0095
 50
270.0
 51
0.0
  0
ARC
  5
113
100
AcDbEntity
100
AcDbArc
  8
0
 62
     0
 10
0.038
 20
0.0455
 30
0.0
 40
0.0095
 50
0.0
 51
90.0
  0
ARC
  5
114
100
AcDbEntity
100
AcDbArc
  8
0
 62
     0
 10
0.057
 20
0.0455
 30
0.0
 40
0.0095
 50
90.0
 51
180.0
  0
ARC
  5
115
100
AcDbEntity
100
AcDbArc
  8
0
 62
     0
 10
0.0475
 20
0.0095
 30
0.0
 40
0.0095
 50
180.0
 51
270.0
  0
ARC
  5
116
100
AcDbEntity
100
AcDbArc
  8
0
 62
     0
 10
0.0475
 20
0.0095
 30
0.0
 40
0.0095
 50
270.0
 51
0.0
  0
ARC
  5
117
100
AcDbEntity
100
AcDbArc
  8
0
 62
     0
 10
0.057
 20
0.0455
 30
0.0
 40
0.0095
 50
0.0
 51
90.0
  0
ARC
  5
118
100
AcDbEntity
100
AcDbArc
  8
0
 62
     0
 10
0.076
 20
0.0455
 30
0.0
 40
0.0095
 50
90.0
 51
180.0
  0
ARC
  5
119
100
AcDbEntity
100
AcDbArc
  8
0
 62
     0
 10
0.0665
 20
0.0095
 30
0.0
 40
0.0095
 50
180.0
 51
270.0
  0
ARC
  5
11a
100
AcDbEntity
100
AcDbArc
  8
0
 62
     0
 10
0.0665
 20
0.0095
 30
0.0
 40
0.0095
 50
270.0
 51
0.0
  0
ARC
  5
11b
100
AcDbEntity
100
AcDbArc
  8
0
 62
     0
 10
0.076
 20
0.0455
 30
0.0
 40
0.0095
 50
0.0
 51
90.0
  0
ARC
  5
11c
100
AcDbEntity
100
AcDbArc
  8
0
 62
     0
 10
0.095
 20
0.0455
 30
0.0
 40
0.0095
 50
90.0
 51
180.0
  0
ARC
  5
11d
100
AcDbEntity
100
AcDbArc
  8
0
 62
     0
 10
0.0855
 20
0.0095
 30
0.0
 40
0.0095
 50
180.0
 51
270.0
  0
ARC
  5
11e
100
AcDbEntity
100
AcDbArc
  8
0
 62
     0
 10
0.0855
 20
0.0095
 30
0.0
 40
0.0095
 50
270.0
 51
0.0
  0
ENDBLK
  5
11f
100
AcDbEntity
100
AcDbBlockEnd
  0
BLOCK
  5
120
100
AcDbEntity
100
AcDbBlockBegin
  8
0
  2
ABDICHTUNG_PARAMETRISCH_6
 70
    64
 10
0.0
 20
0.0
 30
0.0
  3
Abdichtung parametrisch_6
  0
HATCH
  5
121
100
AcDbEntity
100
AcDbHatch
  8
OBJEKTE
 62
     0
 10
0.0
 20
0.0
 30
0.0
210
0.0
220
0.0
230
1.0
  2
SOLID_FILL
 70
     1
 71
     0
 91
1
 92
2
 72
     0
 73
     1
 93
4
 10
0.0
 20
0.0
 10
0.007917
 20
0.0
 10
0.007917
 20
0.005
 10
0.0
 20
0.005
 97
0
 75
     0
 76
     1
 98
1
 10
0.0
 20
0.0
  0
HATCH
  5
122
100
AcDbEntity
100
AcDbHatch
  8
OBJEKTE
 62
     0
 10
0.0
 20
0.0
 30
0.0
210
0.0
220
0.0
230
1.0
  2
SOLID_FILL
 70
     1
 71
     0
 91
1
 92
2
 72
     0
 73
     1
 93
4
 10
0.015833
 20
0.0
 10
0.02375
 20
0.0
 10
0.02375
 20
0.005
 10
0.015833
 20
0.005
 97
0
 75
     0
 76
     1
 98
1
 10
0.0
 20
0.0
  0
HATCH
  5
123
100
AcDbEntity
100
AcDbHatch
  8
OBJEKTE
 62
     0
 10
0.0
 20
0.0
 30
0.0
210
0.0
220
0.0
230
1.0
  2
SOLID_FILL
 70
     1
 71
     0
 91
1
 92
2
 72
     0
 73
     1
 93
4
 10
0.031667
 20
0.0
 10
0.039583
 20
0.0
 10
0.039583
 20
0.005
 10
0.031667
 20
0.005
 97
0
 75
     0
 76
     1
 98
1
 10
0.0
 20
0.0
  0
HATCH
  5
124
100
AcDbEntity
100
AcDbHatch
  8
OBJEKTE
 62
     0
 10
0.0
 20
0.0
 30
0.0
210
0.0
220
0.0
230
1.0
  2
SOLID_FILL
 70
     1
 71
     0
 91
1
 92
2
 72
     0
 73
     1
 93
4
 10
0.0475
 20
0.0
 10
0.055417
 20
0.0
 10
0.055417
 20
0.005
 10
0.0475
 20
0.005
 97
0
 75
     0
 76
     1
 98
1
 10
0.0
 20
0.0
  0
HATCH
  5
125
100
AcDbEntity
100
AcDbHatch
  8
OBJEKTE
 62
     0
 10
0.0
 20
0.0
 30
0.0
210
0.0
220
0.0
230
1.0
  2
SOLID_FILL
 70
     1
 71
     0
 91
1
 92
2
 72
     0
 73
     1
 93
4
 10
0.063333
 20
0.0
 10
0.07125
 20
0.0
 10
0.07125
 20
0.005
 10
0.063333
 20
0.005
 97
0
 75
     0
 76
     1
 98
1
 10
0.0
 20
0.0
  0
HATCH
  5
126
100
AcDbEntity
100
AcDbHatch
  8
OBJEKTE
 62
     0
 10
0.0
 20
0.0
 30
0.0
210
0.0
220
0.0
230
1.0
  2
SOLID_FILL
 70
     1
 71
     0
 91
1
 92
2
 72
     0
 73
     1
 93
4
 10
0.079167
 20
0.0
 10
0.087083
 20
0.0
 10
0.087083
 20
0.005
 10
0.079167
 20
0.005
 97
0
 75
     0
 76
     1
 98
1
 10
0.0
 20
0.0
  0
LINE
  5
127
100
AcDbEntity
100
AcDbLine
  8
0
 62
     0
 10
0.0
 20
0.0
 30
0.0
 11
0.095
 21
0.0
 31
0.0
  0
LINE
  5
128
100
AcDbEntity
100
AcDbLine
  8
0
 62
     0
 10
0.095
 20
0.0
 30
0.0
 11
0.095
 21
0.005
 31
0.0
  0
LINE
  5
129
100
AcDbEntity
100
AcDbLine
  8
0
 62
     0
 10
0.095
 20
0.005
 30
0.0
 11
0.0
 21
0.005
 31
0.0
  0
LINE
  5
12a
100
AcDbEntity
100
AcDbLine
  8
0
 62
     0
 10
0.0
 20
0.005
 30
0.0
 11
0.0
 21
0.0
 31
0.0
  0
ENDBLK
  5
12b
100
AcDbEntity
100
AcDbBlockEnd
  0
BLOCK
  5
12c
100
AcDbEntity
100
AcDbBlockBegin
  8
0
  2
HARTE_DAMMUNG_7
 70
    64
 10
0.0
 20
0.0
 30
0.0
  3
harte Dдmmung_7
  0
LINE
  5
12d
100
AcDbEntity
100
AcDbLine
  8
0
 62
     0
 10
0.0
 20
0.0
 30
0.0
 11
0.0514
 21
0.15
 31
0.0
  0
LINE
  5
12e
100
AcDbEntity
100
AcDbLine
  8
0
 62
     0
 10
0.1028
 20
0.0
 30
0.0
 11
0.0514
 21
0.15
 31
0.0
  0
LINE
  5
12f
100
AcDbEntity
100
AcDbLine
  8
0
 62
     0
 10
0.1028
 20
0.0
 30
0.0
 11
0.1542
 21
0.15
 31
0.0
  0
LINE
  5
130
100
AcDbEntity
100
AcDbLine
  8
0
 62
     0
 10
0.2056
 20
0.0
 30
0.0
 11
0.1542
 21
0.15
 31
0.0
  0
LINE
  5
131
100
AcDbEntity
100
AcDbLine
  8
0
 62
     0
 10
0.2056
 20
0.0
 30
0.0
 11
0.257
 21
0.15
 31
0.0
  0
LINE
  5
132
100
AcDbEntity
100
AcDbLine
  8
0
 62
     0
 10
0.3084
 20
0.0
 30
0.0
 11
0.257
 21
0.15
 31
0.0
  0
LINE
  5
133
100
AcDbEntity
100
AcDbLine
  8
0
 62
     0
 10
0.3084
 20
0.0
 30
0.0
 11
0.3598
 21
0.15
 31
0.0
  0
LINE
  5
134
100
AcDbEntity
100
AcDbLine
  8
0
 62
     0
 10
0.4112
 20
0.0
 30
0.0
 11
0.3598
 21
0.15
 31
0.0
  0
LINE
  5
135
100
AcDbEntity
100
AcDbLine
  8
0
 62
     0
 10
0.4112
 20
0.0
 30
0.0
 11
0.4626
 21
0.15
 31
0.0
  0
LINE
  5
136
100
AcDbEntity
100
AcDbLine
  8
0
 62
     0
 10
0.514
 20
0.0
 30
0.0
 11
0.4626
 21
0.15
 31
0.0
  0
LINE
  5
137
100
AcDbEntity
100
AcDbLine
  8
0
 62
     0
 10
0.514
 20
0.0
 30
0.0
 11
0.5654
 21
0.15
 31
0.0
  0
LINE
  5
138
100
AcDbEntity
100
AcDbLine
  8
0
 62
     0
 10
0.6168
 20
0.0
 30
0.0
 11
0.5654
 21
0.15
 31
0.0
  0
LINE
  5
139
100
AcDbEntity
100
AcDbLine
  8
0
 62
     0
 10
0.6168
 20
0.0
 30
0.0
 11
0.6682
 21
0.15
 31
0.0
  0
LINE
  5
13a
100
AcDbEntity
100
AcDbLine
  8
0
 62
     0
 10
0.7196
 20
0.0
 30
0.0
 11
0.6682
 21
0.15
 31
0.0
  0
LINE
  5
13b
100
AcDbEntity
100
AcDbLine
  8
0
 62
     0
 10
0.7196
 20
0.0
 30
0.0
 11
0.771001
 21
0.15
 31
0.0
  0
LINE
  5
13c
100
AcDbEntity
100
AcDbLine
  8
0
 62
     0
 10
0.822401
 20
0.0
 30
0.0
 11
0.771001
 21
0.15
 31
0.0
  0
LINE
  5
13d
100
AcDbEntity
100
AcDbLine
  8
0
 62
     0
 10
0.822401
 20
0.0
 30
0.0
 11
0.873801
 21
0.15
 31
0.0
  0
LINE
  5
13e
100
AcDbEntity
100
AcDbLine
  8
0
 62
     0
 10
0.925201
 20
0.0
 30
0.0
 11
0.873801
 21
0.15
 31
0.0
  0
ENDBLK
  5
13f
100
AcDbEntity
100
AcDbBlockEnd
  0
BLOCK
  5
140
100
AcDbEntity
100
AcDbBlockBegin
  8
0
  2
ABDICHTUNG_PARAMETRISCH_8
 70
    64
 10
0.0
 20
0.0
 30
0.0
  3
Abdichtung parametrisch_8
  0
HATCH
  5
141
100
AcDbEntity
100
AcDbHatch
  8
OBJEKTE
 62
     0
 10
0.0
 20
0.0
 30
0.0
210
0.0
220
0.0
230
1.0
  2
SOLID_FILL
 70
     1
 71
     0
 91
1
 92
2
 72
     0
 73
     1
 93
4
 10
0.0
 20
0.0
 10
0.005814
 20
0.0
 10
0.005814
 20
0.005
 10
0.0
 20
0.005
 97
0
 75
     0
 76
     1
 98
1
 10
0.0
 20
0.0
  0
HATCH
  5
142
100
AcDbEntity
100
AcDbHatch
  8
OBJEKTE
 62
     0
 10
0.0
 20
0.0
 30
0.0
210
0.0
220
0.0
230
1.0
  2
SOLID_FILL
 70
     1
 71
     0
 91
1
 92
2
 72
     0
 73
     1
 93
4
 10
0.011627
 20
0.0
 10
0.017441
 20
0.0
 10
0.017441
 20
0.005
 10
0.011627
 20
0.005
 97
0
 75
     0
 76
     1
 98
1
 10
0.0
 20
0.0
  0
HATCH
  5
143
100
AcDbEntity
100
AcDbHatch
  8
OBJEKTE
 62
     0
 10
0.0
 20
0.0
 30
0.0
210
0.0
220
0.0
230
1.0
  2
SOLID_FILL
 70
     1
 71
     0
 91
1
 92
2
 72
     0
 73
     1
 93
4
 10
0.023255
 20
0.0
 10
0.029069
 20
0.0
 10
0.029069
 20
0.005
 10
0.023255
 20
0.005
 97
0
 75
     0
 76
     1
 98
1
 10
0.0
 20
0.0
  0
HATCH
  5
144
100
AcDbEntity
100
AcDbHatch
  8
OBJEKTE
 62
     0
 10
0.0
 20
0.0
 30
0.0
210
0.0
220
0.0
230
1.0
  2
SOLID_FILL
 70
     1
 71
     0
 91
1
 92
2
 72
     0
 73
     1
 93
4
 10
0.034882
 20
0.0
 10
0.040696
 20
0.0
 10
0.040696
 20
0.005
 10
0.034882
 20
0.005
 97
0
 75
     0
 76
     1
 98
1
 10
0.0
 20
0.0
  0
HATCH
  5
145
100
AcDbEntity
100
AcDbHatch
  8
OBJEKTE
 62
     0
 10
0.0
 20
0.0
 30
0.0
210
0.0
220
0.0
230
1.0
  2
SOLID_FILL
 70
     1
 71
     0
 91
1
 92
2
 72
     0
 73
     1
 93
4
 10
0.04651
 20
0.0
 10
0.052324
 20
0.0
 10
0.052324
 20
0.005
 10
0.04651
 20
0.005
 97
0
 75
     0
 76
     1
 98
1
 10
0.0
 20
0.0
  0
HATCH
  5
146
100
AcDbEntity
100
AcDbHatch
  8
OBJEKTE
 62
     0
 10
0.0
 20
0.0
 30
0.0
210
0.0
220
0.0
230
1.0
  2
SOLID_FILL
 70
     1
 71
     0
 91
1
 92
2
 72
     0
 73
     1
 93
4
 10
0.058137
 20
0.0
 10
0.063951
 20
0.0
 10
0.063951
 20
0.005
 10
0.058137
 20
0.005
 97
0
 75
     0
 76
     1
 98
1
 10
0.0
 20
0.0
  0
HATCH
  5
147
100
AcDbEntity
100
AcDbHatch
  8
OBJEKTE
 62
     0
 10
0.0
 20
0.0
 30
0.0
210
0.0
220
0.0
230
1.0
  2
SOLID_FILL
 70
     1
 71
     0
 91
1
 92
2
 72
     0
 73
     1
 93
4
 10
0.069765
 20
0.0
 10
0.075579
 20
0.0
 10
0.075579
 20
0.005
 10
0.069765
 20
0.005
 97
0
 75
     0
 76
     1
 98
1
 10
0.0
 20
0.0
  0
HATCH
  5
148
100
AcDbEntity
100
AcDbHatch
  8
OBJEKTE
 62
     0
 10
0.0
 20
0.0
 30
0.0
210
0.0
220
0.0
230
1.0
  2
SOLID_FILL
 70
     1
 71
     0
 91
1
 92
2
 72
     0
 73
     1
 93
4
 10
0.081392
 20
0.0
 10
0.087206
 20
0.0
 10
0.087206
 20
0.005
 10
0.081392
 20
0.005
 97
0
 75
     0
 76
     1
 98
1
 10
0.0
 20
0.0
  0
HATCH
  5
149
100
AcDbEntity
100
AcDbHatch
  8
OBJEKTE
 62
     0
 10
0.0
 20
0.0
 30
0.0
210
0.0
220
0.0
230
1.0
  2
SOLID_FILL
 70
     1
 71
     0
 91
1
 92
2
 72
     0
 73
     1
 93
4
 10
0.09302
 20
0.0
 10
0.098834
 20
0.0
 10
0.098834
 20
0.005
 10
0.09302
 20
0.005
 97
0
 75
     0
 76
     1
 98
1
 10
0.0
 20
0.0
  0
HATCH
  5
14a
100
AcDbEntity
100
AcDbHatch
  8
OBJEKTE
 62
     0
 10
0.0
 20
0.0
 30
0.0
210
0.0
220
0.0
230
1.0
  2
SOLID_FILL
 70
     1
 71
     0
 91
1
 92
2
 72
     0
 73
     1
 93
4
 10
0.104647
 20
0.0
 10
0.110461
 20
0.0
 10
0.110461
 20
0.005
 10
0.104647
 20
0.005
 97
0
 75
     0
 76
     1
 98
1
 10
0.0
 20
0.0
  0
HATCH
  5
14b
100
AcDbEntity
100
AcDbHatch
  8
OBJEKTE
 62
     0
 10
0.0
 20
0.0
 30
0.0
210
0.0
220
0.0
230
1.0
  2
SOLID_FILL
 70
     1
 71
     0
 91
1
 92
2
 72
     0
 73
     1
 93
4
 10
0.116275
 20
0.0
 10
0.122089
 20
0.0
 10
0.122089
 20
0.005
 10
0.116275
 20
0.005
 97
0
 75
     0
 76
     1
 98
1
 10
0.0
 20
0.0
  0
HATCH
  5
14c
100
AcDbEntity
100
AcDbHatch
  8
OBJEKTE
 62
     0
 10
0.0
 20
0.0
 30
0.0
210
0.0
220
0.0
230
1.0
  2
SOLID_FILL
 70
     1
 71
     0
 91
1
 92
2
 72
     0
 73
     1
 93
4
 10
0.127902
 20
0.0
 10
0.133716
 20
0.0
 10
0.133716
 20
0.005
 10
0.127902
 20
0.005
 97
0
 75
     0
 76
     1
 98
1
 10
0.0
 20
0.0
  0
HATCH
  5
14d
100
AcDbEntity
100
AcDbHatch
  8
OBJEKTE
 62
     0
 10
0.0
 20
0.0
 30
0.0
210
0.0
220
0.0
230
1.0
  2
SOLID_FILL
 70
     1
 71
     0
 91
1
 92
2
 72
     0
 73
     1
 93
4
 10
0.13953
 20
0.0
 10
0.145344
 20
0.0
 10
0.145344
 20
0.005
 10
0.13953
 20
0.005
 97
0
 75
     0
 76
     1
 98
1
 10
0.0
 20
0.0
  0
HATCH
  5
14e
100
AcDbEntity
100
AcDbHatch
  8
OBJEKTE
 62
     0
 10
0.0
 20
0.0
 30
0.0
210
0.0
220
0.0
230
1.0
  2
SOLID_FILL
 70
     1
 71
     0
 91
1
 92
2
 72
     0
 73
     1
 93
4
 10
0.151158
 20
0.0
 10
0.156971
 20
0.0
 10
0.156971
 20
0.005
 10
0.151158
 20
0.005
 97
0
 75
     0
 76
     1
 98
1
 10
0.0
 20
0.0
  0
HATCH
  5
14f
100
AcDbEntity
100
AcDbHatch
  8
OBJEKTE
 62
     0
 10
0.0
 20
0.0
 30
0.0
210
0.0
220
0.0
230
1.0
  2
SOLID_FILL
 70
     1
 71
     0
 91
1
 92
2
 72
     0
 73
     1
 93
4
 10
0.162785
 20
0.0
 10
0.168599
 20
0.0
 10
0.168599
 20
0.005
 10
0.162785
 20
0.005
 97
0
 75
     0
 76
     1
 98
1
 10
0.0
 20
0.0
  0
HATCH
  5
150
100
AcDbEntity
100
AcDbHatch
  8
OBJEKTE
 62
     0
 10
0.0
 20
0.0
 30
0.0
210
0.0
220
0.0
230
1.0
  2
SOLID_FILL
 70
     1
 71
     0
 91
1
 92
2
 72
     0
 73
     1
 93
4
 10
0.174412
 20
0.0
 10
0.180226
 20
0.0
 10
0.180226
 20
0.005
 10
0.174412
 20
0.005
 97
0
 75
     0
 76
     1
 98
1
 10
0.0
 20
0.0
  0
HATCH
  5
151
100
AcDbEntity
100
AcDbHatch
  8
OBJEKTE
 62
     0
 10
0.0
 20
0.0
 30
0.0
210
0.0
220
0.0
230
1.0
  2
SOLID_FILL
 70
     1
 71
     0
 91
1
 92
2
 72
     0
 73
     1
 93
4
 10
0.18604
 20
0.0
 10
0.191854
 20
0.0
 10
0.191854
 20
0.005
 10
0.18604
 20
0.005
 97
0
 75
     0
 76
     1
 98
1
 10
0.0
 20
0.0
  0
HATCH
  5
152
100
AcDbEntity
100
AcDbHatch
  8
OBJEKTE
 62
     0
 10
0.0
 20
0.0
 30
0.0
210
0.0
220
0.0
230
1.0
  2
SOLID_FILL
 70
     1
 71
     0
 91
1
 92
2
 72
     0
 73
     1
 93
4
 10
0.197668
 20
0.0
 10
0.203481
 20
0.0
 10
0.203481
 20
0.005
 10
0.197668
 20
0.005
 97
0
 75
     0
 76
     1
 98
1
 10
0.0
 20
0.0
  0
HATCH
  5
153
100
AcDbEntity
100
AcDbHatch
  8
OBJEKTE
 62
     0
 10
0.0
 20
0.0
 30
0.0
210
0.0
220
0.0
230
1.0
  2
SOLID_FILL
 70
     1
 71
     0
 91
1
 92
2
 72
     0
 73
     1
 93
4
 10
0.209295
 20
0.0
 10
0.215109
 20
0.0
 10
0.215109
 20
0.005
 10
0.209295
 20
0.005
 97
0
 75
     0
 76
     1
 98
1
 10
0.0
 20
0.0
  0
HATCH
  5
154
100
AcDbEntity
100
AcDbHatch
  8
OBJEKTE
 62
     0
 10
0.0
 20
0.0
 30
0.0
210
0.0
220
0.0
230
1.0
  2
SOLID_FILL
 70
     1
 71
     0
 91
1
 92
2
 72
     0
 73
     1
 93
4
 10
0.220922
 20
0.0
 10
0.226736
 20
0.0
 10
0.226736
 20
0.005
 10
0.220922
 20
0.005
 97
0
 75
     0
 76
     1
 98
1
 10
0.0
 20
0.0
  0
HATCH
  5
155
100
AcDbEntity
100
AcDbHatch
  8
OBJEKTE
 62
     0
 10
0.0
 20
0.0
 30
0.0
210
0.0
220
0.0
230
1.0
  2
SOLID_FILL
 70
     1
 71
     0
 91
1
 92
2
 72
     0
 73
     1
 93
4
 10
0.23255
 20
0.0
 10
0.238364
 20
0.0
 10
0.238364
 20
0.005
 10
0.23255
 20
0.005
 97
0
 75
     0
 76
     1
 98
1
 10
0.0
 20
0.0
  0
HATCH
  5
156
100
AcDbEntity
100
AcDbHatch
  8
OBJEKTE
 62
     0
 10
0.0
 20
0.0
 30
0.0
210
0.0
220
0.0
230
1.0
  2
SOLID_FILL
 70
     1
 71
     0
 91
1
 92
2
 72
     0
 73
     1
 93
4
 10
0.244177
 20
0.0
 10
0.249991
 20
0.0
 10
0.249991
 20
0.005
 10
0.244177
 20
0.005
 97
0
 75
     0
 76
     1
 98
1
 10
0.0
 20
0.0
  0
HATCH
  5
157
100
AcDbEntity
100
AcDbHatch
  8
OBJEKTE
 62
     0
 10
0.0
 20
0.0
 30
0.0
210
0.0
220
0.0
230
1.0
  2
SOLID_FILL
 70
     1
 71
     0
 91
1
 92
2
 72
     0
 73
     1
 93
4
 10
0.255805
 20
0.0
 10
0.261619
 20
0.0
 10
0.261619
 20
0.005
 10
0.255805
 20
0.005
 97
0
 75
     0
 76
     1
 98
1
 10
0.0
 20
0.0
  0
HATCH
  5
158
100
AcDbEntity
100
AcDbHatch
  8
OBJEKTE
 62
     0
 10
0.0
 20
0.0
 30
0.0
210
0.0
220
0.0
230
1.0
  2
SOLID_FILL
 70
     1
 71
     0
 91
1
 92
2
 72
     0
 73
     1
 93
4
 10
0.267432
 20
0.0
 10
0.273246
 20
0.0
 10
0.273246
 20
0.005
 10
0.267432
 20
0.005
 97
0
 75
     0
 76
     1
 98
1
 10
0.0
 20
0.0
  0
HATCH
  5
159
100
AcDbEntity
100
AcDbHatch
  8
OBJEKTE
 62
     0
 10
0.0
 20
0.0
 30
0.0
210
0.0
220
0.0
230
1.0
  2
SOLID_FILL
 70
     1
 71
     0
 91
1
 92
2
 72
     0
 73
     1
 93
4
 10
0.27906
 20
0.0
 10
0.284874
 20
0.0
 10
0.284874
 20
0.005
 10
0.27906
 20
0.005
 97
0
 75
     0
 76
     1
 98
1
 10
0.0
 20
0.0
  0
HATCH
  5
15a
100
AcDbEntity
100
AcDbHatch
  8
OBJEKTE
 62
     0
 10
0.0
 20
0.0
 30
0.0
210
0.0
220
0.0
230
1.0
  2
SOLID_FILL
 70
     1
 71
     0
 91
1
 92
2
 72
     0
 73
     1
 93
4
 10
0.290687
 20
0.0
 10
0.296501
 20
0.0
 10
0.296501
 20
0.005
 10
0.290687
 20
0.005
 97
0
 75
     0
 76
     1
 98
1
 10
0.0
 20
0.0
  0
HATCH
  5
15b
100
AcDbEntity
100
AcDbHatch
  8
OBJEKTE
 62
     0
 10
0.0
 20
0.0
 30
0.0
210
0.0
220
0.0
230
1.0
  2
SOLID_FILL
 70
     1
 71
     0
 91
1
 92
2
 72
     0
 73
     1
 93
4
 10
0.302315
 20
0.0
 10
0.308129
 20
0.0
 10
0.308129
 20
0.005
 10
0.302315
 20
0.005
 97
0
 75
     0
 76
     1
 98
1
 10
0.0
 20
0.0
  0
HATCH
  5
15c
100
AcDbEntity
100
AcDbHatch
  8
OBJEKTE
 62
     0
 10
0.0
 20
0.0
 30
0.0
210
0.0
220
0.0
230
1.0
  2
SOLID_FILL
 70
     1
 71
     0
 91
1
 92
2
 72
     0
 73
     1
 93
4
 10
0.313942
 20
0.0
 10
0.319756
 20
0.0
 10
0.319756
 20
0.005
 10
0.313942
 20
0.005
 97
0
 75
     0
 76
     1
 98
1
 10
0.0
 20
0.0
  0
HATCH
  5
15d
100
AcDbEntity
100
AcDbHatch
  8
OBJEKTE
 62
     0
 10
0.0
 20
0.0
 30
0.0
210
0.0
220
0.0
230
1.0
  2
SOLID_FILL
 70
     1
 71
     0
 91
1
 92
2
 72
     0
 73
     1
 93
4
 10
0.32557
 20
0.0
 10
0.331384
 20
0.0
 10
0.331384
 20
0.005
 10
0.32557
 20
0.005
 97
0
 75
     0
 76
     1
 98
1
 10
0.0
 20
0.0
  0
HATCH
  5
15e
100
AcDbEntity
100
AcDbHatch
  8
OBJEKTE
 62
     0
 10
0.0
 20
0.0
 30
0.0
210
0.0
220
0.0
230
1.0
  2
SOLID_FILL
 70
     1
 71
     0
 91
1
 92
2
 72
     0
 73
     1
 93
4
 10
0.337197
 20
0.0
 10
0.343011
 20
0.0
 10
0.343011
 20
0.005
 10
0.337197
 20
0.005
 97
0
 75
     0
 76
     1
 98
1
 10
0.0
 20
0.0
  0
HATCH
  5
15f
100
AcDbEntity
100
AcDbHatch
  8
OBJEKTE
 62
     0
 10
0.0
 20
0.0
 30
0.0
210
0.0
220
0.0
230
1.0
  2
SOLID_FILL
 70
     1
 71
     0
 91
1
 92
2
 72
     0
 73
     1
 93
4
 10
0.348825
 20
0.0
 10
0.354639
 20
0.0
 10
0.354639
 20
0.005
 10
0.348825
 20
0.005
 97
0
 75
     0
 76
     1
 98
1
 10
0.0
 20
0.0
  0
HATCH
  5
160
100
AcDbEntity
100
AcDbHatch
  8
OBJEKTE
 62
     0
 10
0.0
 20
0.0
 30
0.0
210
0.0
220
0.0
230
1.0
  2
SOLID_FILL
 70
     1
 71
     0
 91
1
 92
2
 72
     0
 73
     1
 93
4
 10
0.360452
 20
0.0
 10
0.366266
 20
0.0
 10
0.366266
 20
0.005
 10
0.360452
 20
0.005
 97
0
 75
     0
 76
     1
 98
1
 10
0.0
 20
0.0
  0
HATCH
  5
161
100
AcDbEntity
100
AcDbHatch
  8
OBJEKTE
 62
     0
 10
0.0
 20
0.0
 30
0.0
210
0.0
220
0.0
230
1.0
  2
SOLID_FILL
 70
     1
 71
     0
 91
1
 92
2
 72
     0
 73
     1
 93
4
 10
0.37208
 20
0.0
 10
0.377894
 20
0.0
 10
0.377894
 20
0.005
 10
0.37208
 20
0.005
 97
0
 75
     0
 76
     1
 98
1
 10
0.0
 20
0.0
  0
HATCH
  5
162
100
AcDbEntity
100
AcDbHatch
  8
OBJEKTE
 62
     0
 10
0.0
 20
0.0
 30
0.0
210
0.0
220
0.0
230
1.0
  2
SOLID_FILL
 70
     1
 71
     0
 91
1
 92
2
 72
     0
 73
     1
 93
4
 10
0.383707
 20
0.0
 10
0.389521
 20
0.0
 10
0.389521
 20
0.005
 10
0.383707
 20
0.005
 97
0
 75
     0
 76
     1
 98
1
 10
0.0
 20
0.0
  0
HATCH
  5
163
100
AcDbEntity
100
AcDbHatch
  8
OBJEKTE
 62
     0
 10
0.0
 20
0.0
 30
0.0
210
0.0
220
0.0
230
1.0
  2
SOLID_FILL
 70
     1
 71
     0
 91
1
 92
2
 72
     0
 73
     1
 93
4
 10
0.395335
 20
0.0
 10
0.401149
 20
0.0
 10
0.401149
 20
0.005
 10
0.395335
 20
0.005
 97
0
 75
     0
 76
     1
 98
1
 10
0.0
 20
0.0
  0
HATCH
  5
164
100
AcDbEntity
100
AcDbHatch
  8
OBJEKTE
 62
     0
 10
0.0
 20
0.0
 30
0.0
210
0.0
220
0.0
230
1.0
  2
SOLID_FILL
 70
     1
 71
     0
 91
1
 92
2
 72
     0
 73
     1
 93
4
 10
0.406962
 20
0.0
 10
0.412776
 20
0.0
 10
0.412776
 20
0.005
 10
0.406962
 20
0.005
 97
0
 75
     0
 76
     1
 98
1
 10
0.0
 20
0.0
  0
HATCH
  5
165
100
AcDbEntity
100
AcDbHatch
  8
OBJEKTE
 62
     0
 10
0.0
 20
0.0
 30
0.0
210
0.0
220
0.0
230
1.0
  2
SOLID_FILL
 70
     1
 71
     0
 91
1
 92
2
 72
     0
 73
     1
 93
4
 10
0.41859
 20
0.0
 10
0.424404
 20
0.0
 10
0.424404
 20
0.005
 10
0.41859
 20
0.005
 97
0
 75
     0
 76
     1
 98
1
 10
0.0
 20
0.0
  0
HATCH
  5
166
100
AcDbEntity
100
AcDbHatch
  8
OBJEKTE
 62
     0
 10
0.0
 20
0.0
 30
0.0
210
0.0
220
0.0
230
1.0
  2
SOLID_FILL
 70
     1
 71
     0
 91
1
 92
2
 72
     0
 73
     1
 93
4
 10
0.430217
 20
0.0
 10
0.436031
 20
0.0
 10
0.436031
 20
0.005
 10
0.430217
 20
0.005
 97
0
 75
     0
 76
     1
 98
1
 10
0.0
 20
0.0
  0
HATCH
  5
167
100
AcDbEntity
100
AcDbHatch
  8
OBJEKTE
 62
     0
 10
0.0
 20
0.0
 30
0.0
210
0.0
220
0.0
230
1.0
  2
SOLID_FILL
 70
     1
 71
     0
 91
1
 92
2
 72
     0
 73
     1
 93
4
 10
0.441845
 20
0.0
 10
0.447659
 20
0.0
 10
0.447659
 20
0.005
 10
0.441845
 20
0.005
 97
0
 75
     0
 76
     1
 98
1
 10
0.0
 20
0.0
  0
HATCH
  5
168
100
AcDbEntity
100
AcDbHatch
  8
OBJEKTE
 62
     0
 10
0.0
 20
0.0
 30
0.0
210
0.0
220
0.0
230
1.0
  2
SOLID_FILL
 70
     1
 71
     0
 91
1
 92
2
 72
     0
 73
     1
 93
4
 10
0.453472
 20
0.0
 10
0.459286
 20
0.0
 10
0.459286
 20
0.005
 10
0.453472
 20
0.005
 97
0
 75
     0
 76
     1
 98
1
 10
0.0
 20
0.0
  0
HATCH
  5
169
100
AcDbEntity
100
AcDbHatch
  8
OBJEKTE
 62
     0
 10
0.0
 20
0.0
 30
0.0
210
0.0
220
0.0
230
1.0
  2
SOLID_FILL
 70
     1
 71
     0
 91
1
 92
2
 72
     0
 73
     1
 93
4
 10
0.4651
 20
0.0
 10
0.470914
 20
0.0
 10
0.470914
 20
0.005
 10
0.4651
 20
0.005
 97
0
 75
     0
 76
     1
 98
1
 10
0.0
 20
0.0
  0
HATCH
  5
16a
100
AcDbEntity
100
AcDbHatch
  8
OBJEKTE
 62
     0
 10
0.0
 20
0.0
 30
0.0
210
0.0
220
0.0
230
1.0
  2
SOLID_FILL
 70
     1
 71
     0
 91
1
 92
2
 72
     0
 73
     1
 93
4
 10
0.476727
 20
0.0
 10
0.482541
 20
0.0
 10
0.482541
 20
0.005
 10
0.476727
 20
0.005
 97
0
 75
     0
 76
     1
 98
1
 10
0.0
 20
0.0
  0
HATCH
  5
16b
100
AcDbEntity
100
AcDbHatch
  8
OBJEKTE
 62
     0
 10
0.0
 20
0.0
 30
0.0
210
0.0
220
0.0
230
1.0
  2
SOLID_FILL
 70
     1
 71
     0
 91
1
 92
2
 72
     0
 73
     1
 93
4
 10
0.488355
 20
0.0
 10
0.494169
 20
0.0
 10
0.494169
 20
0.005
 10
0.488355
 20
0.005
 97
0
 75
     0
 76
     1
 98
1
 10
0.0
 20
0.0
  0
HATCH
  5
16c
100
AcDbEntity
100
AcDbHatch
  8
OBJEKTE
 62
     0
 10
0.0
 20
0.0
 30
0.0
210
0.0
220
0.0
230
1.0
  2
SOLID_FILL
 70
     1
 71
     0
 91
1
 92
2
 72
     0
 73
     1
 93
4
 10
0.499982
 20
0.0
 10
0.505796
 20
0.0
 10
0.505796
 20
0.005
 10
0.499982
 20
0.005
 97
0
 75
     0
 76
     1
 98
1
 10
0.0
 20
0.0
  0
HATCH
  5
16d
100
AcDbEntity
100
AcDbHatch
  8
OBJEKTE
 62
     0
 10
0.0
 20
0.0
 30
0.0
210
0.0
220
0.0
230
1.0
  2
SOLID_FILL
 70
     1
 71
     0
 91
1
 92
2
 72
     0
 73
     1
 93
4
 10
0.51161
 20
0.0
 10
0.517424
 20
0.0
 10
0.517424
 20
0.005
 10
0.51161
 20
0.005
 97
0
 75
     0
 76
     1
 98
1
 10
0.0
 20
0.0
  0
HATCH
  5
16e
100
AcDbEntity
100
AcDbHatch
  8
OBJEKTE
 62
     0
 10
0.0
 20
0.0
 30
0.0
210
0.0
220
0.0
230
1.0
  2
SOLID_FILL
 70
     1
 71
     0
 91
1
 92
2
 72
     0
 73
     1
 93
4
 10
0.523237
 20
0.0
 10
0.529051
 20
0.0
 10
0.529051
 20
0.005
 10
0.523237
 20
0.005
 97
0
 75
     0
 76
     1
 98
1
 10
0.0
 20
0.0
  0
HATCH
  5
16f
100
AcDbEntity
100
AcDbHatch
  8
OBJEKTE
 62
     0
 10
0.0
 20
0.0
 30
0.0
210
0.0
220
0.0
230
1.0
  2
SOLID_FILL
 70
     1
 71
     0
 91
1
 92
2
 72
     0
 73
     1
 93
4
 10
0.534865
 20
0.0
 10
0.540679
 20
0.0
 10
0.540679
 20
0.005
 10
0.534865
 20
0.005
 97
0
 75
     0
 76
     1
 98
1
 10
0.0
 20
0.0
  0
HATCH
  5
170
100
AcDbEntity
100
AcDbHatch
  8
OBJEKTE
 62
     0
 10
0.0
 20
0.0
 30
0.0
210
0.0
220
0.0
230
1.0
  2
SOLID_FILL
 70
     1
 71
     0
 91
1
 92
2
 72
     0
 73
     1
 93
4
 10
0.546492
 20
0.0
 10
0.552306
 20
0.0
 10
0.552306
 20
0.005
 10
0.546492
 20
0.005
 97
0
 75
     0
 76
     1
 98
1
 10
0.0
 20
0.0
  0
HATCH
  5
171
100
AcDbEntity
100
AcDbHatch
  8
OBJEKTE
 62
     0
 10
0.0
 20
0.0
 30
0.0
210
0.0
220
0.0
230
1.0
  2
SOLID_FILL
 70
     1
 71
     0
 91
1
 92
2
 72
     0
 73
     1
 93
4
 10
0.55812
 20
0.0
 10
0.563934
 20
0.0
 10
0.563934
 20
0.005
 10
0.55812
 20
0.005
 97
0
 75
     0
 76
     1
 98
1
 10
0.0
 20
0.0
  0
HATCH
  5
172
100
AcDbEntity
100
AcDbHatch
  8
OBJEKTE
 62
     0
 10
0.0
 20
0.0
 30
0.0
210
0.0
220
0.0
230
1.0
  2
SOLID_FILL
 70
     1
 71
     0
 91
1
 92
2
 72
     0
 73
     1
 93
4
 10
0.569747
 20
0.0
 10
0.575561
 20
0.0
 10
0.575561
 20
0.005
 10
0.569747
 20
0.005
 97
0
 75
     0
 76
     1
 98
1
 10
0.0
 20
0.0
  0
HATCH
  5
173
100
AcDbEntity
100
AcDbHatch
  8
OBJEKTE
 62
     0
 10
0.0
 20
0.0
 30
0.0
210
0.0
220
0.0
230
1.0
  2
SOLID_FILL
 70
     1
 71
     0
 91
1
 92
2
 72
     0
 73
     1
 93
4
 10
0.581375
 20
0.0
 10
0.587189
 20
0.0
 10
0.587189
 20
0.005
 10
0.581375
 20
0.005
 97
0
 75
     0
 76
     1
 98
1
 10
0.0
 20
0.0
  0
HATCH
  5
174
100
AcDbEntity
100
AcDbHatch
  8
OBJEKTE
 62
     0
 10
0.0
 20
0.0
 30
0.0
210
0.0
220
0.0
230
1.0
  2
SOLID_FILL
 70
     1
 71
     0
 91
1
 92
2
 72
     0
 73
     1
 93
4
 10
0.593002
 20
0.0
 10
0.598816
 20
0.0
 10
0.598816
 20
0.005
 10
0.593002
 20
0.005
 97
0
 75
     0
 76
     1
 98
1
 10
0.0
 20
0.0
  0
HATCH
  5
175
100
AcDbEntity
100
AcDbHatch
  8
OBJEKTE
 62
     0
 10
0.0
 20
0.0
 30
0.0
210
0.0
220
0.0
230
1.0
  2
SOLID_FILL
 70
     1
 71
     0
 91
1
 92
2
 72
     0
 73
     1
 93
4
 10
0.60463
 20
0.0
 10
0.610444
 20
0.0
 10
0.610444
 20
0.005
 10
0.60463
 20
0.005
 97
0
 75
     0
 76
     1
 98
1
 10
0.0
 20
0.0
  0
HATCH
  5
176
100
AcDbEntity
100
AcDbHatch
  8
OBJEKTE
 62
     0
 10
0.0
 20
0.0
 30
0.0
210
0.0
220
0.0
230
1.0
  2
SOLID_FILL
 70
     1
 71
     0
 91
1
 92
2
 72
     0
 73
     1
 93
4
 10
0.616257
 20
0.0
 10
0.622071
 20
0.0
 10
0.622071
 20
0.005
 10
0.616257
 20
0.005
 97
0
 75
     0
 76
     1
 98
1
 10
0.0
 20
0.0
  0
HATCH
  5
177
100
AcDbEntity
100
AcDbHatch
  8
OBJEKTE
 62
     0
 10
0.0
 20
0.0
 30
0.0
210
0.0
220
0.0
230
1.0
  2
SOLID_FILL
 70
     1
 71
     0
 91
1
 92
2
 72
     0
 73
     1
 93
4
 10
0.627885
 20
0.0
 10
0.633699
 20
0.0
 10
0.633699
 20
0.005
 10
0.627885
 20
0.005
 97
0
 75
     0
 76
     1
 98
1
 10
0.0
 20
0.0
  0
HATCH
  5
178
100
AcDbEntity
100
AcDbHatch
  8
OBJEKTE
 62
     0
 10
0.0
 20
0.0
 30
0.0
210
0.0
220
0.0
230
1.0
  2
SOLID_FILL
 70
     1
 71
     0
 91
1
 92
2
 72
     0
 73
     1
 93
4
 10
0.639512
 20
0.0
 10
0.645326
 20
0.0
 10
0.645326
 20
0.005
 10
0.639512
 20
0.005
 97
0
 75
     0
 76
     1
 98
1
 10
0.0
 20
0.0
  0
HATCH
  5
179
100
AcDbEntity
100
AcDbHatch
  8
OBJEKTE
 62
     0
 10
0.0
 20
0.0
 30
0.0
210
0.0
220
0.0
230
1.0
  2
SOLID_FILL
 70
     1
 71
     0
 91
1
 92
2
 72
     0
 73
     1
 93
4
 10
0.65114
 20
0.0
 10
0.656954
 20
0.0
 10
0.656954
 20
0.005
 10
0.65114
 20
0.005
 97
0
 75
     0
 76
     1
 98
1
 10
0.0
 20
0.0
  0
HATCH
  5
17a
100
AcDbEntity
100
AcDbHatch
  8
OBJEKTE
 62
     0
 10
0.0
 20
0.0
 30
0.0
210
0.0
220
0.0
230
1.0
  2
SOLID_FILL
 70
     1
 71
     0
 91
1
 92
2
 72
     0
 73
     1
 93
4
 10
0.662767
 20
0.0
 10
0.668581
 20
0.0
 10
0.668581
 20
0.005
 10
0.662767
 20
0.005
 97
0
 75
     0
 76
     1
 98
1
 10
0.0
 20
0.0
  0
HATCH
  5
17b
100
AcDbEntity
100
AcDbHatch
  8
OBJEKTE
 62
     0
 10
0.0
 20
0.0
 30
0.0
210
0.0
220
0.0
230
1.0
  2
SOLID_FILL
 70
     1
 71
     0
 91
1
 92
2
 72
     0
 73
     1
 93
4
 10
0.674395
 20
0.0
 10
0.680209
 20
0.0
 10
0.680209
 20
0.005
 10
0.674395
 20
0.005
 97
0
 75
     0
 76
     1
 98
1
 10
0.0
 20
0.0
  0
HATCH
  5
17c
100
AcDbEntity
100
AcDbHatch
  8
OBJEKTE
 62
     0
 10
0.0
 20
0.0
 30
0.0
210
0.0
220
0.0
230
1.0
  2
SOLID_FILL
 70
     1
 71
     0
 91
1
 92
2
 72
     0
 73
     1
 93
4
 10
0.686022
 20
0.0
 10
0.691836
 20
0.0
 10
0.691836
 20
0.005
 10
0.686022
 20
0.005
 97
0
 75
     0
 76
     1
 98
1
 10
0.0
 20
0.0
  0
HATCH
  5
17d
100
AcDbEntity
100
AcDbHatch
  8
OBJEKTE
 62
     0
 10
0.0
 20
0.0
 30
0.0
210
0.0
220
0.0
230
1.0
  2
SOLID_FILL
 70
     1
 71
     0
 91
1
 92
2
 72
     0
 73
     1
 93
4
 10
0.69765
 20
0.0
 10
0.703464
 20
0.0
 10
0.703464
 20
0.005
 10
0.69765
 20
0.005
 97
0
 75
     0
 76
     1
 98
1
 10
0.0
 20
0.0
  0
HATCH
  5
17e
100
AcDbEntity
100
AcDbHatch
  8
OBJEKTE
 62
     0
 10
0.0
 20
0.0
 30
0.0
210
0.0
220
0.0
230
1.0
  2
SOLID_FILL
 70
     1
 71
     0
 91
1
 92
2
 72
     0
 73
     1
 93
4
 10
0.709277
 20
0.0
 10
0.715091
 20
0.0
 10
0.715091
 20
0.005
 10
0.709277
 20
0.005
 97
0
 75
     0
 76
     1
 98
1
 10
0.0
 20
0.0
  0
HATCH
  5
17f
100
AcDbEntity
100
AcDbHatch
  8
OBJEKTE
 62
     0
 10
0.0
 20
0.0
 30
0.0
210
0.0
220
0.0
230
1.0
  2
SOLID_FILL
 70
     1
 71
     0
 91
1
 92
2
 72
     0
 73
     1
 93
4
 10
0.720905
 20
0.0
 10
0.726719
 20
0.0
 10
0.726719
 20
0.005
 10
0.720905
 20
0.005
 97
0
 75
     0
 76
     1
 98
1
 10
0.0
 20
0.0
  0
HATCH
  5
180
100
AcDbEntity
100
AcDbHatch
  8
OBJEKTE
 62
     0
 10
0.0
 20
0.0
 30
0.0
210
0.0
220
0.0
230
1.0
  2
SOLID_FILL
 70
     1
 71
     0
 91
1
 92
2
 72
     0
 73
     1
 93
4
 10
0.732532
 20
0.0
 10
0.738346
 20
0.0
 10
0.738346
 20
0.005
 10
0.732532
 20
0.005
 97
0
 75
     0
 76
     1
 98
1
 10
0.0
 20
0.0
  0
HATCH
  5
181
100
AcDbEntity
100
AcDbHatch
  8
OBJEKTE
 62
     0
 10
0.0
 20
0.0
 30
0.0
210
0.0
220
0.0
230
1.0
  2
SOLID_FILL
 70
     1
 71
     0
 91
1
 92
2
 72
     0
 73
     1
 93
4
 10
0.74416
 20
0.0
 10
0.749974
 20
0.0
 10
0.749974
 20
0.005
 10
0.74416
 20
0.005
 97
0
 75
     0
 76
     1
 98
1
 10
0.0
 20
0.0
  0
HATCH
  5
182
100
AcDbEntity
100
AcDbHatch
  8
OBJEKTE
 62
     0
 10
0.0
 20
0.0
 30
0.0
210
0.0
220
0.0
230
1.0
  2
SOLID_FILL
 70
     1
 71
     0
 91
1
 92
2
 72
     0
 73
     1
 93
4
 10
0.755787
 20
0.0
 10
0.761601
 20
0.0
 10
0.761601
 20
0.005
 10
0.755787
 20
0.005
 97
0
 75
     0
 76
     1
 98
1
 10
0.0
 20
0.0
  0
HATCH
  5
183
100
AcDbEntity
100
AcDbHatch
  8
OBJEKTE
 62
     0
 10
0.0
 20
0.0
 30
0.0
210
0.0
220
0.0
230
1.0
  2
SOLID_FILL
 70
     1
 71
     0
 91
1
 92
2
 72
     0
 73
     1
 93
4
 10
0.767415
 20
0.0
 10
0.773229
 20
0.0
 10
0.773229
 20
0.005
 10
0.767415
 20
0.005
 97
0
 75
     0
 76
     1
 98
1
 10
0.0
 20
0.0
  0
HATCH
  5
184
100
AcDbEntity
100
AcDbHatch
  8
OBJEKTE
 62
     0
 10
0.0
 20
0.0
 30
0.0
210
0.0
220
0.0
230
1.0
  2
SOLID_FILL
 70
     1
 71
     0
 91
1
 92
2
 72
     0
 73
     1
 93
4
 10
0.779042
 20
0.0
 10
0.784856
 20
0.0
 10
0.784856
 20
0.005
 10
0.779042
 20
0.005
 97
0
 75
     0
 76
     1
 98
1
 10
0.0
 20
0.0
  0
HATCH
  5
185
100
AcDbEntity
100
AcDbHatch
  8
OBJEKTE
 62
     0
 10
0.0
 20
0.0
 30
0.0
210
0.0
220
0.0
230
1.0
  2
SOLID_FILL
 70
     1
 71
     0
 91
1
 92
2
 72
     0
 73
     1
 93
4
 10
0.79067
 20
0.0
 10
0.796484
 20
0.0
 10
0.796484
 20
0.005
 10
0.79067
 20
0.005
 97
0
 75
     0
 76
     1
 98
1
 10
0.0
 20
0.0
  0
HATCH
  5
186
100
AcDbEntity
100
AcDbHatch
  8
OBJEKTE
 62
     0
 10
0.0
 20
0.0
 30
0.0
210
0.0
220
0.0
230
1.0
  2
SOLID_FILL
 70
     1
 71
     0
 91
1
 92
2
 72
     0
 73
     1
 93
4
 10
0.802297
 20
0.0
 10
0.808111
 20
0.0
 10
0.808111
 20
0.005
 10
0.802297
 20
0.005
 97
0
 75
     0
 76
     1
 98
1
 10
0.0
 20
0.0
  0
HATCH
  5
187
100
AcDbEntity
100
AcDbHatch
  8
OBJEKTE
 62
     0
 10
0.0
 20
0.0
 30
0.0
210
0.0
220
0.0
230
1.0
  2
SOLID_FILL
 70
     1
 71
     0
 91
1
 92
2
 72
     0
 73
     1
 93
4
 10
0.813925
 20
0.0
 10
0.819739
 20
0.0
 10
0.819739
 20
0.005
 10
0.813925
 20
0.005
 97
0
 75
     0
 76
     1
 98
1
 10
0.0
 20
0.0
  0
HATCH
  5
188
100
AcDbEntity
100
AcDbHatch
  8
OBJEKTE
 62
     0
 10
0.0
 20
0.0
 30
0.0
210
0.0
220
0.0
230
1.0
  2
SOLID_FILL
 70
     1
 71
     0
 91
1
 92
2
 72
     0
 73
     1
 93
4
 10
0.825552
 20
0.0
 10
0.831366
 20
0.0
 10
0.831366
 20
0.005
 10
0.825552
 20
0.005
 97
0
 75
     0
 76
     1
 98
1
 10
0.0
 20
0.0
  0
HATCH
  5
189
100
AcDbEntity
100
AcDbHatch
  8
OBJEKTE
 62
     0
 10
0.0
 20
0.0
 30
0.0
210
0.0
220
0.0
230
1.0
  2
SOLID_FILL
 70
     1
 71
     0
 91
1
 92
2
 72
     0
 73
     1
 93
4
 10
0.83718
 20
0.0
 10
0.842994
 20
0.0
 10
0.842994
 20
0.005
 10
0.83718
 20
0.005
 97
0
 75
     0
 76
     1
 98
1
 10
0.0
 20
0.0
  0
HATCH
  5
18a
100
AcDbEntity
100
AcDbHatch
  8
OBJEKTE
 62
     0
 10
0.0
 20
0.0
 30
0.0
210
0.0
220
0.0
230
1.0
  2
SOLID_FILL
 70
     1
 71
     0
 91
1
 92
2
 72
     0
 73
     1
 93
4
 10
0.848807
 20
0.0
 10
0.854621
 20
0.0
 10
0.854621
 20
0.005
 10
0.848807
 20
0.005
 97
0
 75
     0
 76
     1
 98
1
 10
0.0
 20
0.0
  0
HATCH
  5
18b
100
AcDbEntity
100
AcDbHatch
  8
OBJEKTE
 62
     0
 10
0.0
 20
0.0
 30
0.0
210
0.0
220
0.0
230
1.0
  2
SOLID_FILL
 70
     1
 71
     0
 91
1
 92
2
 72
     0
 73
     1
 93
4
 10
0.860435
 20
0.0
 10
0.866249
 20
0.0
 10
0.866249
 20
0.005
 10
0.860435
 20
0.005
 97
0
 75
     0
 76
     1
 98
1
 10
0.0
 20
0.0
  0
HATCH
  5
18c
100
AcDbEntity
100
AcDbHatch
  8
OBJEKTE
 62
     0
 10
0.0
 20
0.0
 30
0.0
210
0.0
220
0.0
230
1.0
  2
SOLID_FILL
 70
     1
 71
     0
 91
1
 92
2
 72
     0
 73
     1
 93
4
 10
0.872062
 20
0.0
 10
0.877876
 20
0.0
 10
0.877876
 20
0.005
 10
0.872062
 20
0.005
 97
0
 75
     0
 76
     1
 98
1
 10
0.0
 20
0.0
  0
HATCH
  5
18d
100
AcDbEntity
100
AcDbHatch
  8
OBJEKTE
 62
     0
 10
0.0
 20
0.0
 30
0.0
210
0.0
220
0.0
230
1.0
  2
SOLID_FILL
 70
     1
 71
     0
 91
1
 92
2
 72
     0
 73
     1
 93
4
 10
0.88369
 20
0.0
 10
0.889504
 20
0.0
 10
0.889504
 20
0.005
 10
0.88369
 20
0.005
 97
0
 75
     0
 76
     1
 98
1
 10
0.0
 20
0.0
  0
HATCH
  5
18e
100
AcDbEntity
100
AcDbHatch
  8
OBJEKTE
 62
     0
 10
0.0
 20
0.0
 30
0.0
210
0.0
220
0.0
230
1.0
  2
SOLID_FILL
 70
     1
 71
     0
 91
1
 92
2
 72
     0
 73
     1
 93
4
 10
0.895317
 20
0.0
 10
0.901131
 20
0.0
 10
0.901131
 20
0.005
 10
0.895317
 20
0.005
 97
0
 75
     0
 76
     1
 98
1
 10
0.0
 20
0.0
  0
HATCH
  5
18f
100
AcDbEntity
100
AcDbHatch
  8
OBJEKTE
 62
     0
 10
0.0
 20
0.0
 30
0.0
210
0.0
220
0.0
230
1.0
  2
SOLID_FILL
 70
     1
 71
     0
 91
1
 92
2
 72
     0
 73
     1
 93
4
 10
0.906945
 20
0.0
 10
0.912759
 20
0.0
 10
0.912759
 20
0.005
 10
0.906945
 20
0.005
 97
0
 75
     0
 76
     1
 98
1
 10
0.0
 20
0.0
  0
HATCH
  5
190
100
AcDbEntity
100
AcDbHatch
  8
OBJEKTE
 62
     0
 10
0.0
 20
0.0
 30
0.0
210
0.0
220
0.0
230
1.0
  2
SOLID_FILL
 70
     1
 71
     0
 91
1
 92
2
 72
     0
 73
     1
 93
4
 10
0.918572
 20
0.0
 10
0.924386
 20
0.0
 10
0.924386
 20
0.005
 10
0.918572
 20
0.005
 97
0
 75
     0
 76
     1
 98
1
 10
0.0
 20
0.0
  0
LINE
  5
191
100
AcDbEntity
100
AcDbLine
  8
0
 62
     0
 10
0.0
 20
0.0
 30
0.0
 11
0.9302
 21
0.0
 31
0.0
  0
LINE
  5
192
100
AcDbEntity
100
AcDbLine
  8
0
 62
     0
 10
0.9302
 20
0.0
 30
0.0
 11
0.9302
 21
0.005
 31
0.0
  0
LINE
  5
193
100
AcDbEntity
100
AcDbLine
  8
0
 62
     0
 10
0.9302
 20
0.005
 30
0.0
 11
0.0
 21
0.005
 31
0.0
  0
LINE
  5
194
100
AcDbEntity
100
AcDbLine
  8
0
 62
     0
 10
0.0
 20
0.005
 30
0.0
 11
0.0
 21
0.0
 31
0.0
  0
ENDBLK
  5
195
100
AcDbEntity
100
AcDbBlockEnd
  0
BLOCK
  5
196
100
AcDbEntity
100
AcDbBlockBegin
  8
0
  2
ABDICHTUNG_PARAMETRISCH_9
 70
    64
 10
0.0
 20
0.0
 30
0.0
  3
Abdichtung parametrisch_9
  0
HATCH
  5
197
100
AcDbEntity
100
AcDbHatch
  8
OBJEKTE
 62
     0
 10
0.0
 20
0.0
 30
0.0
210
0.0
220
0.0
230
1.0
  2
SOLID_FILL
 70
     1
 71
     0
 91
1
 92
2
 72
     0
 73
     1
 93
4
 10
0.0
 20
0.0
 10
0.008333
 20
0.0
 10
0.008333
 20
0.005
 10
0.0
 20
0.005
 97
0
 75
     0
 76
     1
 98
1
 10
0.0
 20
0.0
  0
HATCH
  5
198
100
AcDbEntity
100
AcDbHatch
  8
OBJEKTE
 62
     0
 10
0.0
 20
0.0
 30
0.0
210
0.0
220
0.0
230
1.0
  2
SOLID_FILL
 70
     1
 71
     0
 91
1
 92
2
 72
     0
 73
     1
 93
4
 10
0.016667
 20
0.0
 10
0.025
 20
0.0
 10
0.025
 20
0.005
 10
0.016667
 20
0.005
 97
0
 75
     0
 76
     1
 98
1
 10
0.0
 20
0.0
  0
HATCH
  5
199
100
AcDbEntity
100
AcDbHatch
  8
OBJEKTE
 62
     0
 10
0.0
 20
0.0
 30
0.0
210
0.0
220
0.0
230
1.0
  2
SOLID_FILL
 70
     1
 71
     0
 91
1
 92
2
 72
     0
 73
     1
 93
4
 10
0.033333
 20
0.0
 10
0.041667
 20
0.0
 10
0.041667
 20
0.005
 10
0.033333
 20
0.005
 97
0
 75
     0
 76
     1
 98
1
 10
0.0
 20
0.0
  0
HATCH
  5
19a
100
AcDbEntity
100
AcDbHatch
  8
OBJEKTE
 62
     0
 10
0.0
 20
0.0
 30
0.0
210
0.0
220
0.0
230
1.0
  2
SOLID_FILL
 70
     1
 71
     0
 91
1
 92
2
 72
     0
 73
     1
 93
4
 10
0.05
 20
0.0
 10
0.058333
 20
0.0
 10
0.058333
 20
0.005
 10
0.05
 20
0.005
 97
0
 75
     0
 76
     1
 98
1
 10
0.0
 20
0.0
  0
HATCH
  5
19b
100
AcDbEntity
100
AcDbHatch
  8
OBJEKTE
 62
     0
 10
0.0
 20
0.0
 30
0.0
210
0.0
220
0.0
230
1.0
  2
SOLID_FILL
 70
     1
 71
     0
 91
1
 92
2
 72
     0
 73
     1
 93
4
 10
0.066667
 20
0.0
 10
0.075
 20
0.0
 10
0.075
 20
0.005
 10
0.066667
 20
0.005
 97
0
 75
     0
 76
     1
 98
1
 10
0.0
 20
0.0
  0
HATCH
  5
19c
100
AcDbEntity
100
AcDbHatch
  8
OBJEKTE
 62
     0
 10
0.0
 20
0.0
 30
0.0
210
0.0
220
0.0
230
1.0
  2
SOLID_FILL
 70
     1
 71
     0
 91
1
 92
2
 72
     0
 73
     1
 93
4
 10
0.083333
 20
0.0
 10
0.091667
 20
0.0
 10
0.091667
 20
0.005
 10
0.083333
 20
0.005
 97
0
 75
     0
 76
     1
 98
1
 10
0.0
 20
0.0
  0
HATCH
  5
19d
100
AcDbEntity
100
AcDbHatch
  8
OBJEKTE
 62
     0
 10
0.0
 20
0.0
 30
0.0
210
0.0
220
0.0
230
1.0
  2
SOLID_FILL
 70
     1
 71
     0
 91
1
 92
2
 72
     0
 73
     1
 93
4
 10
0.1
 20
0.0
 10
0.108333
 20
0.0
 10
0.108333
 20
0.005
 10
0.1
 20
0.005
 97
0
 75
     0
 76
     1
 98
1
 10
0.0
 20
0.0
  0
HATCH
  5
19e
100
AcDbEntity
100
AcDbHatch
  8
OBJEKTE
 62
     0
 10
0.0
 20
0.0
 30
0.0
210
0.0
220
0.0
230
1.0
  2
SOLID_FILL
 70
     1
 71
     0
 91
1
 92
2
 72
     0
 73
     1
 93
4
 10
0.116667
 20
0.0
 10
0.125
 20
0.0
 10
0.125
 20
0.005
 10
0.116667
 20
0.005
 97
0
 75
     0
 76
     1
 98
1
 10
0.0
 20
0.0
  0
HATCH
  5
19f
100
AcDbEntity
100
AcDbHatch
  8
OBJEKTE
 62
     0
 10
0.0
 20
0.0
 30
0.0
210
0.0
220
0.0
230
1.0
  2
SOLID_FILL
 70
     1
 71
     0
 91
1
 92
2
 72
     0
 73
     1
 93
4
 10
0.133333
 20
0.0
 10
0.141667
 20
0.0
 10
0.141667
 20
0.005
 10
0.133333
 20
0.005
 97
0
 75
     0
 76
     1
 98
1
 10
0.0
 20
0.0
  0
HATCH
  5
1a0
100
AcDbEntity
100
AcDbHatch
  8
OBJEKTE
 62
     0
 10
0.0
 20
0.0
 30
0.0
210
0.0
220
0.0
230
1.0
  2
SOLID_FILL
 70
     1
 71
     0
 91
1
 92
2
 72
     0
 73
     1
 93
4
 10
0.15
 20
0.0
 10
0.158333
 20
0.0
 10
0.158333
 20
0.005
 10
0.15
 20
0.005
 97
0
 75
     0
 76
     1
 98
1
 10
0.0
 20
0.0
  0
HATCH
  5
1a1
100
AcDbEntity
100
AcDbHatch
  8
OBJEKTE
 62
     0
 10
0.0
 20
0.0
 30
0.0
210
0.0
220
0.0
230
1.0
  2
SOLID_FILL
 70
     1
 71
     0
 91
1
 92
2
 72
     0
 73
     1
 93
4
 10
0.166667
 20
0.0
 10
0.175
 20
0.0
 10
0.175
 20
0.005
 10
0.166667
 20
0.005
 97
0
 75
     0
 76
     1
 98
1
 10
0.0
 20
0.0
  0
HATCH
  5
1a2
100
AcDbEntity
100
AcDbHatch
  8
OBJEKTE
 62
     0
 10
0.0
 20
0.0
 30
0.0
210
0.0
220
0.0
230
1.0
  2
SOLID_FILL
 70
     1
 71
     0
 91
1
 92
2
 72
     0
 73
     1
 93
4
 10
0.183333
 20
0.0
 10
0.191667
 20
0.0
 10
0.191667
 20
0.005
 10
0.183333
 20
0.005
 97
0
 75
     0
 76
     1
 98
1
 10
0.0
 20
0.0
  0
HATCH
  5
1a3
100
AcDbEntity
100
AcDbHatch
  8
OBJEKTE
 62
     0
 10
0.0
 20
0.0
 30
0.0
210
0.0
220
0.0
230
1.0
  2
SOLID_FILL
 70
     1
 71
     0
 91
1
 92
2
 72
     0
 73
     1
 93
4
 10
0.2
 20
0.0
 10
0.208333
 20
0.0
 10
0.208333
 20
0.005
 10
0.2
 20
0.005
 97
0
 75
     0
 76
     1
 98
1
 10
0.0
 20
0.0
  0
HATCH
  5
1a4
100
AcDbEntity
100
AcDbHatch
  8
OBJEKTE
 62
     0
 10
0.0
 20
0.0
 30
0.0
210
0.0
220
0.0
230
1.0
  2
SOLID_FILL
 70
     1
 71
     0
 91
1
 92
2
 72
     0
 73
     1
 93
4
 10
0.216667
 20
0.0
 10
0.225
 20
0.0
 10
0.225
 20
0.005
 10
0.216667
 20
0.005
 97
0
 75
     0
 76
     1
 98
1
 10
0.0
 20
0.0
  0
HATCH
  5
1a5
100
AcDbEntity
100
AcDbHatch
  8
OBJEKTE
 62
     0
 10
0.0
 20
0.0
 30
0.0
210
0.0
220
0.0
230
1.0
  2
SOLID_FILL
 70
     1
 71
     0
 91
1
 92
2
 72
     0
 73
     1
 93
4
 10
0.233333
 20
0.0
 10
0.241667
 20
0.0
 10
0.241667
 20
0.005
 10
0.233333
 20
0.005
 97
0
 75
     0
 76
     1
 98
1
 10
0.0
 20
0.0
  0
HATCH
  5
1a6
100
AcDbEntity
100
AcDbHatch
  8
OBJEKTE
 62
     0
 10
0.0
 20
0.0
 30
0.0
210
0.0
220
0.0
230
1.0
  2
SOLID_FILL
 70
     1
 71
     0
 91
1
 92
2
 72
     0
 73
     1
 93
4
 10
0.25
 20
0.0
 10
0.258333
 20
0.0
 10
0.258333
 20
0.005
 10
0.25
 20
0.005
 97
0
 75
     0
 76
     1
 98
1
 10
0.0
 20
0.0
  0
HATCH
  5
1a7
100
AcDbEntity
100
AcDbHatch
  8
OBJEKTE
 62
     0
 10
0.0
 20
0.0
 30
0.0
210
0.0
220
0.0
230
1.0
  2
SOLID_FILL
 70
     1
 71
     0
 91
1
 92
2
 72
     0
 73
     1
 93
4
 10
0.266667
 20
0.0
 10
0.275
 20
0.0
 10
0.275
 20
0.005
 10
0.266667
 20
0.005
 97
0
 75
     0
 76
     1
 98
1
 10
0.0
 20
0.0
  0
HATCH
  5
1a8
100
AcDbEntity
100
AcDbHatch
  8
OBJEKTE
 62
     0
 10
0.0
 20
0.0
 30
0.0
210
0.0
220
0.0
230
1.0
  2
SOLID_FILL
 70
     1
 71
     0
 91
1
 92
2
 72
     0
 73
     1
 93
4
 10
0.283333
 20
0.0
 10
0.291667
 20
0.0
 10
0.291667
 20
0.005
 10
0.283333
 20
0.005
 97
0
 75
     0
 76
     1
 98
1
 10
0.0
 20
0.0
  0
LINE
  5
1a9
100
AcDbEntity
100
AcDbLine
  8
0
 62
     0
 10
0.0
 20
0.0
 30
0.0
 11
0.3
 21
0.0
 31
0.0
  0
LINE
  5
1aa
100
AcDbEntity
100
AcDbLine
  8
0
 62
     0
 10
0.3
 20
0.0
 30
0.0
 11
0.3
 21
0.005
 31
0.0
  0
LINE
  5
1ab
100
AcDbEntity
100
AcDbLine
  8
0
 62
     0
 10
0.3
 20
0.005
 30
0.0
 11
0.0
 21
0.005
 31
0.0
  0
LINE
  5
1ac
100
AcDbEntity
100
AcDbLine
  8
0
 62
     0
 10
0.0
 20
0.005
 30
0.0
 11
0.0
 21
0.0
 31
0.0
  0
ENDBLK
  5
1ad
100
AcDbEntity
100
AcDbBlockEnd
  0
BLOCK
  5
1ae
100
AcDbEntity
100
AcDbBlockBegin
  8
0
  2
HARTE_DAMMUNG_10
 70
    64
 10
0.0
 20
0.0
 30
0.0
  3
harte Dдmmung_10
  0
LINE
  5
1af
100
AcDbEntity
100
AcDbLine
  8
0
 62
     0
 10
0.0
 20
0.0
 30
0.0
 11
0.0514
 21
0.15
 31
0.0
  0
LINE
  5
1b0
100
AcDbEntity
100
AcDbLine
  8
0
 62
     0
 10
0.1028
 20
0.0
 30
0.0
 11
0.0514
 21
0.15
 31
0.0
  0
LINE
  5
1b1
100
AcDbEntity
100
AcDbLine
  8
0
 62
     0
 10
0.1028
 20
0.0
 30
0.0
 11
0.1542
 21
0.15
 31
0.0
  0
LINE
  5
1b2
100
AcDbEntity
100
AcDbLine
  8
0
 62
     0
 10
0.2056
 20
0.0
 30
0.0
 11
0.1542
 21
0.15
 31
0.0
  0
LINE
  5
1b3
100
AcDbEntity
100
AcDbLine
  8
0
 62
     0
 10
0.2056
 20
0.0
 30
0.0
 11
0.257
 21
0.15
 31
0.0
  0
LINE
  5
1b4
100
AcDbEntity
100
AcDbLine
  8
0
 62
     0
 10
0.3084
 20
0.0
 30
0.0
 11
0.257
 21
0.15
 31
0.0
  0
LINE
  5
1b5
100
AcDbEntity
100
AcDbLine
  8
0
 62
     0
 10
0.3084
 20
0.0
 30
0.0
 11
0.3598
 21
0.15
 31
0.0
  0
LINE
  5
1b6
100
AcDbEntity
100
AcDbLine
  8
0
 62
     0
 10
0.4112
 20
0.0
 30
0.0
 11
0.3598
 21
0.15
 31
0.0
  0
LINE
  5
1b7
100
AcDbEntity
100
AcDbLine
  8
0
 62
     0
 10
0.4112
 20
0.0
 30
0.0
 11
0.4626
 21
0.15
 31
0.0
  0
LINE
  5
1b8
100
AcDbEntity
100
AcDbLine
  8
0
 62
     0
 10
0.514
 20
0.0
 30
0.0
 11
0.4626
 21
0.15
 31
0.0
  0
LINE
  5
1b9
100
AcDbEntity
100
AcDbLine
  8
0
 62
     0
 10
0.514
 20
0.0
 30
0.0
 11
0.5654
 21
0.15
 31
0.0
  0
LINE
  5
1ba
100
AcDbEntity
100
AcDbLine
  8
0
 62
     0
 10
0.6168
 20
0.0
 30
0.0
 11
0.5654
 21
0.15
 31
0.0
  0
LINE
  5
1bb
100
AcDbEntity
100
AcDbLine
  8
0
 62
     0
 10
0.6168
 20
0.0
 30
0.0
 11
0.6682
 21
0.15
 31
0.0
  0
LINE
  5
1bc
100
AcDbEntity
100
AcDbLine
  8
0
 62
     0
 10
0.7196
 20
0.0
 30
0.0
 11
0.6682
 21
0.15
 31
0.0
  0
LINE
  5
1bd
100
AcDbEntity
100
AcDbLine
  8
0
 62
     0
 10
0.7196
 20
0.0
 30
0.0
 11
0.771001
 21
0.15
 31
0.0
  0
LINE
  5
1be
100
AcDbEntity
100
AcDbLine
  8
0
 62
     0
 10
0.822401
 20
0.0
 30
0.0
 11
0.771001
 21
0.15
 31
0.0
  0
LINE
  5
1bf
100
AcDbEntity
100
AcDbLine
  8
0
 62
     0
 10
0.822401
 20
0.0
 30
0.0
 11
0.873801
 21
0.15
 31
0.0
  0
LINE
  5
1c0
100
AcDbEntity
100
AcDbLine
  8
0
 62
     0
 10
0.925201
 20
0.0
 30
0.0
 11
0.873801
 21
0.15
 31
0.0
  0
ENDBLK
  5
1c1
100
AcDbEntity
100
AcDbBlockEnd
  0
BLOCK
  5
1c2
100
AcDbEntity
100
AcDbBlockBegin
  8
0
  2
FILL_1
 70
    64
 10
0.0
 20
0.0
 30
0.0
  0
HATCH
  5
1c3
100
AcDbEntity
100
AcDbHatch
  8
STRUKTUR
 62
     9
 10
0.0
 20
0.0
 30
0.0
210
0.0
220
0.0
230
1.0
  2
7B_SAND
 70
     0
 71
     0
 91
1
 92
2
 72
     0
 73
     1
 93
4
 10
0.727961
 20
1.859741
 10
0.735961
 20
1.859741
 10
0.735961
 20
1.919247
 10
0.727961
 20
1.919247
 97
0
 75
     0
 76
     1
 52
0.0
 41
0.018
 77
     0
 78
     2
 53
45.0
 43
0.0
 44
0.018
 45
-0.005728
 46
0.005728
 79
     4
 49
0.0
 49
-0.0054
 49
0.0
 49
-0.0081
 53
110.0
 43
0.018
 44
0.018
 45
-0.007612
 46
-0.00277
 79
     4
 49
0.0
 49
-0.00396
 49
0.0
 49
-0.00684
 98
1
 10
0.0
 20
0.0
  0
ENDBLK
  5
1c4
100
AcDbEntity
100
AcDbBlockEnd
  0
BLOCK
  5
1c5
100
AcDbEntity
100
AcDbBlockBegin
  8
0
  2
FILL_2
 70
    64
 10
0.0
 20
0.0
 30
0.0
  0
HATCH
  5
1c6
100
AcDbEntity
100
AcDbHatch
  8
FARBEN
 62
    40
 10
0.0
 20
0.0
 30
0.0
210
0.0
220
0.0
230
1.0
  2
SOLID_FILL
 70
     1
 71
     0
 91
1
 92
2
 72
     0
 73
     1
 93
6
 10
0.709971
 20
2.244235
 10
1.195961
 20
2.244235
 10
1.195961
 20
2.044235
 10
0.895961
 20
2.044235
 10
0.895961
 20
2.124235
 10
0.709971
 20
2.124235
 97
0
 75
     0
 76
     1
 98
1
 10
0.0
 20
0.0
  0
ENDBLK
  5
1c7
100
AcDbEntity
100
AcDbBlockEnd
  0
BLOCK
  5
1c8
100
AcDbEntity
100
AcDbBlockBegin
  8
0
  2
FILL_3
 70
    64
 10
0.0
 20
0.0
 30
0.0
  0
HATCH
  5
1c9
100
AcDbEntity
100
AcDbHatch
  8
FARBEN
 62
    40
 10
0.0
 20
0.0
 30
0.0
210
0.0
220
0.0
230
1.0
  2
SOLID_FILL
 70
     1
 71
     0
 91
1
 92
2
 72
     0
 73
     1
 93
6
 10
0.895961
 20
2.044235
 10
1.195961
 20
2.044235
 10
1.195961
 20
1.984235
 10
0.990961
 20
1.984235
 10
0.990961
 20
1.989235
 10
0.895961
 20
1.989235
 97
0
 75
     0
 76
     1
 98
1
 10
0.0
 20
0.0
  0
ENDBLK
  5
1ca
100
AcDbEntity
100
AcDbBlockEnd
  0
BLOCK
  5
1cb
100
AcDbEntity
100
AcDbBlockBegin
  8
0
  2
FILL_4
 70
    64
 10
0.0
 20
0.0
 30
0.0
  0
HATCH
  5
1cc
100
AcDbEntity
100
AcDbHatch
  8
STRUKTUR
 62
     9
 10
0.0
 20
0.0
 30
0.0
210
0.0
220
0.0
230
1.0
  2
7B_SAND
 70
     0
 71
     0
 91
1
 92
2
 72
     0
 73
     1
 93
4
 10
0.727961
 20
1.359741
 10
0.735961
 20
1.359741
 10
0.735961
 20
1.419338
 10
0.727961
 20
1.419338
 97
0
 75
     0
 76
     1
 52
0.0
 41
0.018
 77
     0
 78
     2
 53
45.0
 43
0.0
 44
0.018
 45
-0.005728
 46
0.005728
 79
     4
 49
0.0
 49
-0.0054
 49
0.0
 49
-0.0081
 53
110.0
 43
0.018
 44
0.018
 45
-0.007612
 46
-0.00277
 79
     4
 49
0.0
 49
-0.00396
 49
0.0
 49
-0.00684
 98
1
 10
0.0
 20
0.0
  0
ENDBLK
  5
1cd
100
AcDbEntity
100
AcDbBlockEnd
  0
BLOCK
  5
1ce
100
AcDbEntity
100
AcDbBlockBegin
  8
0
  2
FILL_5
 70
    64
 10
0.0
 20
0.0
 30
0.0
  0
HATCH
  5
1cf
100
AcDbEntity
100
AcDbHatch
  8
FARBEN
 62
    30
 10
0.0
 20
0.0
 30
0.0
210
0.0
220
0.0
230
1.0
  2
SOLID_FILL
 70
     1
 71
     0
 91
1
 92
2
 72
     0
 73
     1
 93
4
 10
0.735961
 20
2.124235
 10
0.895961
 20
2.124235
 10
0.895961
 20
1.984235
 10
0.735961
 20
1.984235
 97
0
 75
     0
 76
     1
 98
1
 10
0.0
 20
0.0
  0
ENDBLK
  5
1d0
100
AcDbEntity
100
AcDbBlockEnd
  0
BLOCK
  5
1d1
100
AcDbEntity
100
AcDbBlockBegin
  8
0
  2
FILL_6
 70
    64
 10
0.0
 20
0.0
 30
0.0
  0
HATCH
  5
1d2
100
AcDbEntity
100
AcDbHatch
  8
STRUKTUR
 62
     9
 10
0.0
 20
0.0
 30
0.0
210
0.0
220
0.0
230
1.0
  2
7B_SAND
 70
     0
 71
     0
 91
1
 92
2
 72
     0
 73
     1
 93
4
 10
0.727961
 20
1.136987
 10
0.735961
 20
1.136987
 10
0.735961
 20
1.077279
 10
0.727961
 20
1.077279
 97
0
 75
     0
 76
     1
 52
0.0
 41
0.018
 77
     0
 78
     2
 53
45.0
 43
0.0
 44
0.018
 45
-0.005728
 46
0.005728
 79
     4
 49
0.0
 49
-0.0054
 49
0.0
 49
-0.0081
 53
110.0
 43
0.018
 44
0.018
 45
-0.007612
 46
-0.00277
 79
     4
 49
0.0
 49
-0.00396
 49
0.0
 49
-0.00684
 98
1
 10
0.0
 20
0.0
  0
ENDBLK
  5
1d3
100
AcDbEntity
100
AcDbBlockEnd
  0
BLOCK
  5
1d4
100
AcDbEntity
100
AcDbBlockBegin
  8
0
  2
FILL_7
 70
    64
 10
0.0
 20
0.0
 30
0.0
  0
HATCH
  5
1d5
100
AcDbEntity
100
AcDbHatch
  8
STRUKTUR
 62
     9
 10
0.0
 20
0.0
 30
0.0
210
0.0
220
0.0
230
1.0
  2
7B_SAND
 70
     0
 71
     0
 91
1
 92
2
 72
     0
 73
     1
 93
4
 10
0.727961
 20
1.359741
 10
0.735961
 20
1.359741
 10
0.735961
 20
1.299921
 10
0.727961
 20
1.299921
 97
0
 75
     0
 76
     1
 52
0.0
 41
0.018
 77
     0
 78
     2
 53
45.0
 43
0.0
 44
0.018
 45
-0.005728
 46
0.005728
 79
     4
 49
0.0
 49
-0.0054
 49
0.0
 49
-0.0081
 53
110.0
 43
0.018
 44
0.018
 45
-0.007612
 46
-0.00277
 79
     4
 49
0.0
 49
-0.00396
 49
0.0
 49
-0.00684
 98
1
 10
0.0
 20
0.0
  0
ENDBLK
  5
1d6
100
AcDbEntity
100
AcDbBlockEnd
  0
BLOCK
  5
1d7
100
AcDbEntity
100
AcDbBlockBegin
  8
0
  2
FILL_8
 70
    64
 10
0.0
 20
0.0
 30
0.0
  0
HATCH
  5
1d8
100
AcDbEntity
100
AcDbHatch
  8
STRUKTUR
 62
     8
 10
0.0
 20
0.0
 30
0.0
210
0.0
220
0.0
230
1.0
  2
7B_SAND
 70
     0
 71
     0
 91
1
 92
2
 72
     0
 73
     1
 93
4
 10
0.527961
 20
1.023249
 10
0.527961
 20
2.025957
 10
0.523961
 20
2.025957
 10
0.523961
 20
1.023249
 97
0
 75
     0
 76
     1
 52
0.0
 41
0.018
 77
     0
 78
     2
 53
45.0
 43
0.0
 44
0.018
 45
-0.005728
 46
0.005728
 79
     4
 49
0.0
 49
-0.0054
 49
0.0
 49
-0.0081
 53
110.0
 43
0.018
 44
0.018
 45
-0.007612
 46
-0.00277
 79
     4
 49
0.0
 49
-0.00396
 49
0.0
 49
-0.00684
 98
1
 10
0.0
 20
0.0
  0
ENDBLK
  5
1d9
100
AcDbEntity
100
AcDbBlockEnd
  0
BLOCK
  5
1da
100
AcDbEntity
100
AcDbBlockBegin
  8
0
  2
FILL_9
 70
    64
 10
0.0
 20
0.0
 30
0.0
  0
HATCH
  5
1db
100
AcDbEntity
100
AcDbHatch
  8
STRUKTUR
 62
     9
 10
0.0
 20
0.0
 30
0.0
210
0.0
220
0.0
230
1.0
  2
7B_SAND
 70
     0
 71
     0
 91
1
 92
2
 72
     0
 73
     1
 93
4
 10
0.727961
 20
1.800235
 10
0.735961
 20
1.800235
 10
0.735961
 20
1.859741
 10
0.727961
 20
1.859741
 97
0
 75
     0
 76
     1
 52
0.0
 41
0.018
 77
     0
 78
     2
 53
45.0
 43
0.0
 44
0.018
 45
-0.005728
 46
0.005728
 79
     4
 49
0.0
 49
-0.0054
 49
0.0
 49
-0.0081
 53
110.0
 43
0.018
 44
0.018
 45
-0.007612
 46
-0.00277
 79
     4
 49
0.0
 49
-0.00396
 49
0.0
 49
-0.00684
 98
1
 10
0.0
 20
0.0
  0
ENDBLK
  5
1dc
100
AcDbEntity
100
AcDbBlockEnd
  0
BLOCK
  5
1dd
100
AcDbEntity
100
AcDbBlockBegin
  8
0
  2
FILL_10
 70
    64
 10
0.0
 20
0.0
 30
0.0
  0
HATCH
  5
1de
100
AcDbEntity
100
AcDbHatch
  8
STRUKTUR
 62
     9
 10
0.0
 20
0.0
 30
0.0
210
0.0
220
0.0
230
1.0
  2
7B_SAND
 70
     0
 71
     0
 91
1
 92
2
 72
     0
 73
     1
 93
4
 10
0.727961
 20
1.637676
 10
0.735961
 20
1.637676
 10
0.735961
 20
1.577968
 10
0.727961
 20
1.577968
 97
0
 75
     0
 76
     1
 52
0.0
 41
0.018
 77
     0
 78
     2
 53
45.0
 43
0.0
 44
0.018
 45
-0.005728
 46
0.005728
 79
     4
 49
0.0
 49
-0.0054
 49
0.0
 49
-0.0081
 53
110.0
 43
0.018
 44
0.018
 45
-0.007612
 46
-0.00277
 79
     4
 49
0.0
 49
-0.00396
 49
0.0
 49
-0.00684
 98
1
 10
0.0
 20
0.0
  0
ENDBLK
  5
1df
100
AcDbEntity
100
AcDbBlockEnd
  0
BLOCK
  5
1e0
100
AcDbEntity
100
AcDbBlockBegin
  8
0
  2
FILL_11
 70
    64
 10
0.0
 20
0.0
 30
0.0
  0
HATCH
  5
1e1
100
AcDbEntity
100
AcDbHatch
  8
FARBEN
 62
   254
 10
0.0
 20
0.0
 30
0.0
210
0.0
220
0.0
230
1.0
  2
SOLID_FILL
 70
     1
 71
     0
 91
1
 92
2
 72
     0
 73
     1
 93
4
 10
1.001092
 20
1.434235
 10
1.001092
 20
1.158636
 10
1.803843
 20
1.158636
 10
1.803843
 20
1.434235
 97
0
 75
     0
 76
     1
 98
1
 10
0.0
 20
0.0
  0
ENDBLK
  5
1e2
100
AcDbEntity
100
AcDbBlockEnd
  0
BLOCK
  5
1e3
100
AcDbEntity
100
AcDbBlockBegin
  8
0
  2
FILL_12
 70
    64
 10
0.0
 20
0.0
 30
0.0
  0
HATCH
  5
1e4
100
AcDbEntity
100
AcDbHatch
  8
FARBEN
 62
    40
 10
0.0
 20
0.0
 30
0.0
210
0.0
220
0.0
230
1.0
  2
SOLID_FILL
 70
     1
 71
     0
 91
1
 92
2
 72
     0
 73
     1
 93
6
 10
0.523961
 20
2.033375
 10
0.735961
 20
2.033375
 10
0.735961
 20
2.124235
 10
0.709971
 20
2.124235
 10
0.709971
 20
2.244235
 10
0.523961
 20
2.058225
 97
0
 75
     0
 76
     1
 98
1
 10
0.0
 20
0.0
  0
ENDBLK
  5
1e5
100
AcDbEntity
100
AcDbBlockEnd
  0
BLOCK
  5
1e6
100
AcDbEntity
100
AcDbBlockBegin
  8
0
  2
FILL_13
 70
    64
 10
0.0
 20
0.0
 30
0.0
  0
HATCH
  5
1e7
100
AcDbEntity
100
AcDbHatch
  8
FARBEN
 62
    40
 10
0.0
 20
0.0
 30
0.0
210
0.0
220
0.0
230
1.0
  2
SOLID_FILL
 70
     1
 71
     0
 91
1
 92
2
 72
     0
 73
     1
 93
4
 10
1.195961
 20
2.057881
 10
1.205961
 20
2.057881
 10
1.205961
 20
1.984235
 10
1.195961
 20
1.984235
 97
0
 75
     0
 76
     1
 98
1
 10
0.0
 20
0.0
  0
ENDBLK
  5
1e8
100
AcDbEntity
100
AcDbBlockEnd
  0
BLOCK
  5
1e9
100
AcDbEntity
100
AcDbBlockBegin
  8
0
  2
FILL_14
 70
    64
 10
0.0
 20
0.0
 30
0.0
  0
HATCH
  5
1ea
100
AcDbEntity
100
AcDbHatch
  8
FARBEN
 62
   254
 10
0.0
 20
0.0
 30
0.0
210
0.0
220
0.0
230
1.0
  2
SOLID_FILL
 70
     1
 71
     0
 91
1
 92
2
 72
     0
 73
     1
 93
12
 10
0.284369
 20
2.7156
 10
0.284369
 20
1.158636
 10
0.523961
 20
1.158636
 10
0.523961
 20
2.046235
 10
0.523961
 20
2.058225
 10
0.709971
 20
2.244235
 10
1.195961
 20
2.244235
 10
1.195961
 20
2.057881
 10
1.205961
 20
2.057881
 10
1.205961
 20
2.046235
 10
1.803843
 20
2.046235
 10
1.803843
 20
2.7156
 97
0
 75
     0
 76
     1
 98
1
 10
0.0
 20
0.0
  0
ENDBLK
  5
1eb
100
AcDbEntity
100
AcDbBlockEnd
  0
BLOCK
  5
1ec
100
AcDbEntity
100
AcDbBlockBegin
  8
0
  2
FILL_15
 70
    64
 10
0.0
 20
0.0
 30
0.0
  0
HATCH
  5
1ed
100
AcDbEntity
100
AcDbHatch
  8
FARBEN
 62
   253
 10
0.0
 20
0.0
 30
0.0
210
0.0
220
0.0
230
1.0
  2
SOLID_FILL
 70
     1
 71
     0
 91
1
 92
2
 72
     0
 73
     1
 93
4
 10
1.207961
 20
1.986235
 10
1.916162
 20
1.986235
 10
1.916162
 20
2.046235
 10
1.207961
 20
2.046235
 97
0
 75
     0
 76
     1
 98
1
 10
0.0
 20
0.0
  0
ENDBLK
  5
1ee
100
AcDbEntity
100
AcDbBlockEnd
  0
BLOCK
  5
1ef
100
AcDbEntity
100
AcDbBlockBegin
  8
0
  2
FILL_16
 70
    64
 10
0.0
 20
0.0
 30
0.0
  0
HATCH
  5
1f0
100
AcDbEntity
100
AcDbHatch
  8
STRUKTUR
 62
     9
 10
0.0
 20
0.0
 30
0.0
210
0.0
220
0.0
230
1.0
  2
7B_SAND
 70
     0
 71
     0
 91
1
 92
2
 72
     0
 73
     1
 93
4
 10
1.916161
 20
1.434235
 10
0.985961
 20
1.434235
 10
0.985961
 20
1.449235
 10
1.916161
 20
1.449235
 97
0
 75
     0
 76
     1
 52
0.0
 41
0.018
 77
     0
 78
     2
 53
45.0
 43
0.0
 44
0.018
 45
-0.005728
 46
0.005728
 79
     4
 49
0.0
 49
-0.0054
 49
0.0
 49
-0.0081
 53
110.0
 43
0.018
 44
0.018
 45
-0.007612
 46
-0.00277
 79
     4
 49
0.0
 49
-0.00396
 49
0.0
 49
-0.00684
 98
1
 10
0.0
 20
0.0
  0
ENDBLK
  5
1f1
100
AcDbEntity
100
AcDbBlockEnd
  0
BLOCK
  5
1f2
100
AcDbEntity
100
AcDbBlockBegin
  8
0
  2
FILL_17
 70
    64
 10
0.0
 20
0.0
 30
0.0
  0
HATCH
  5
1f3
100
AcDbEntity
100
AcDbHatch
  8
FARBEN
 62
   253
 10
0.0
 20
0.0
 30
0.0
210
0.0
220
0.0
230
1.0
  2
SOLID_FILL
 70
     1
 71
     0
 91
1
 92
2
 72
     1
 73
     1
 93
12
 10
1.461536
 20
1.629235
 42
0.0
 10
1.610646
 20
1.629235
 42
0.0
 10
1.610646
 20
1.614235
 42
0.0
 10
1.620766
 20
1.614235
 42
-0.557473
 10
1.62345
 20
1.609894
 42
0.0
 10
1.570646
 20
1.504235
 42
0.0
 10
1.570646
 20
1.489235
 42
0.0
 10
1.501536
 20
1.489235
 42
0.0
 10
1.501536
 20
1.504235
 42
0.0
 10
1.448733
 20
1.609894
 42
-0.557473
 10
1.451416
 20
1.614235
 42
0.0
 10
1.461536
 20
1.614235
 42
0.0
 97
0
 75
     0
 76
     1
 98
1
 10
0.0
 20
0.0
  0
ENDBLK
  5
1f4
100
AcDbEntity
100
AcDbBlockEnd
  0
BLOCK
  5
1f5
100
AcDbEntity
100
AcDbBlockBegin
  8
0
  2
FILL_18
 70
    64
 10
0.0
 20
0.0
 30
0.0
  0
HATCH
  5
1f6
100
AcDbEntity
100
AcDbHatch
  8
FARBEN
 62
     9
 10
0.0
 20
0.0
 30
0.0
210
0.0
220
0.0
230
1.0
  2
SOLID_FILL
 70
     1
 71
     0
 91
2
 92
2
 72
     1
 73
     1
 93
16
 10
0.921536
 20
1.449235
 42
0.0
 10
1.201536
 20
1.449235
 42
0.0
 10
1.201536
 20
1.472235
 42
0.0
 10
1.125666
 20
1.472235
 42
-0.414214
 10
1.117666
 20
1.480235
 42
0.0
 10
1.117666
 20
1.598308
 42
-0.414214
 10
1.125666
 20
1.606308
 42
0.0
 10
1.201536
 20
1.606308
 42
0.0
 10
1.201536
 20
1.629235
 42
0.0
 10
0.941536
 20
1.629235
 42
0.0
 10
0.941536
 20
1.614235
 42
0.0
 10
0.951657
 20
1.614235
 42
-0.557473
 10
0.95434
 20
1.609894
 42
0.0
 10
0.901536
 20
1.504235
 42
0.0
 10
0.901536
 20
1.489235
 42
0.0
 10
0.921536
 20
1.489235
 42
0.0
 97
0
 92
2
 72
     1
 73
     1
 93
8
 10
0.990623
 20
1.606308
 42
0.0
 10
1.091666
 20
1.606308
 42
-0.414214
 10
1.099666
 20
1.598308
 42
0.0
 10
1.099666
 20
1.480235
 42
-0.414214
 10
1.091666
 20
1.472235
 42
0.0
 10
0.985214
 20
1.472235
 42
-0.569438
 10
0.945069
 20
1.539894
 42
0.0
 10
0.972733
 20
1.595248
 42
-0.284131
 97
0
 75
     0
 76
     1
 98
1
 10
0.0
 20
0.0
  0
ENDBLK
  5
1f7
100
AcDbEntity
100
AcDbBlockEnd
  0
BLOCK
  5
1f8
100
AcDbEntity
100
AcDbBlockBegin
  8
0
  2
FILL_19
 70
    64
 10
0.0
 20
0.0
 30
0.0
  0
HATCH
  5
1f9
100
AcDbEntity
100
AcDbHatch
  8
FARBEN
 62
     9
 10
0.0
 20
0.0
 30
0.0
210
0.0
220
0.0
230
1.0
  2
SOLID_FILL
 70
     1
 71
     0
 91
2
 92
2
 72
     1
 73
     1
 93
16
 10
1.481536
 20
1.449235
 42
0.0
 10
1.201536
 20
1.449235
 42
0.0
 10
1.201536
 20
1.472235
 42
0.0
 10
1.277407
 20
1.472235
 42
0.414214
 10
1.285407
 20
1.480235
 42
0.0
 10
1.285407
 20
1.598308
 42
0.414214
 10
1.277407
 20
1.606308
 42
0.0
 10
1.201536
 20
1.606308
 42
0.0
 10
1.201536
 20
1.629235
 42
0.0
 10
1.461536
 20
1.629235
 42
0.0
 10
1.461536
 20
1.614235
 42
0.0
 10
1.451416
 20
1.614235
 42
0.557473
 10
1.448733
 20
1.609894
 42
0.0
 10
1.501536
 20
1.504235
 42
0.0
 10
1.501536
 20
1.489235
 42
0.0
 10
1.481536
 20
1.489235
 42
0.0
 97
0
 92
2
 72
     1
 73
     1
 93
8
 10
1.412449
 20
1.606308
 42
0.0
 10
1.311407
 20
1.606308
 42
0.414214
 10
1.303407
 20
1.598308
 42
0.0
 10
1.303407
 20
1.480235
 42
0.414214
 10
1.311407
 20
1.472235
 42
0.0
 10
1.417859
 20
1.472235
 42
0.569438
 10
1.458003
 20
1.539894
 42
0.0
 10
1.43034
 20
1.595248
 42
0.284131
 97
0
 75
     0
 76
     1
 98
1
 10
0.0
 20
0.0
  0
ENDBLK
  5
1fa
100
AcDbEntity
100
AcDbBlockEnd
  0
BLOCK
  5
1fb
100
AcDbEntity
100
AcDbBlockBegin
  8
0
  2
FILL_20
 70
    64
 10
0.0
 20
0.0
 30
0.0
  0
HATCH
  5
1fc
100
AcDbEntity
100
AcDbHatch
  8
FARBEN
 62
     9
 10
0.0
 20
0.0
 30
0.0
210
0.0
220
0.0
230
1.0
  2
SOLID_FILL
 70
     1
 71
     0
 91
1
 92
2
 72
     0
 73
     1
 93
4
 10
1.481536
 20
1.489235
 10
1.590646
 20
1.489235
 10
1.590646
 20
1.449235
 10
1.481536
 20
1.449235
 97
0
 75
     0
 76
     1
 98
1
 10
0.0
 20
0.0
  0
ENDBLK
  5
1fd
100
AcDbEntity
100
AcDbBlockEnd
  0
BLOCK
  5
1fe
100
AcDbEntity
100
AcDbBlockBegin
  8
0
  2
FILL_21
 70
    64
 10
0.0
 20
0.0
 30
0.0
  0
HATCH
  5
1ff
100
AcDbEntity
100
AcDbHatch
  8
FARBEN
 62
   253
 10
0.0
 20
0.0
 30
0.0
210
0.0
220
0.0
230
1.0
  2
SOLID_FILL
 70
     1
 71
     0
 91
1
 92
2
 72
     1
 73
     1
 93
10
 10
0.735961
 20
1.629235
 42
0.0
 10
0.941536
 20
1.629235
 42
0.0
 10
0.941536
 20
1.614235
 42
0.0
 10
0.951657
 20
1.614235
 42
-0.557473
 10
0.95434
 20
1.609894
 42
0.0
 10
0.901536
 20
1.504235
 42
0.0
 10
0.901536
 20
1.489235
 42
0.0
 10
0.921536
 20
1.489235
 42
0.0
 10
0.921536
 20
1.449235
 42
0.0
 10
0.735961
 20
1.449235
 42
0.0
 97
0
 75
     0
 76
     1
 98
1
 10
0.0
 20
0.0
  0
ENDBLK
  5
200
100
AcDbEntity
100
AcDbBlockEnd
  0
BLOCK
  5
201
100
AcDbEntity
100
AcDbBlockBegin
  8
0
  2
FILL_22
 70
    64
 10
0.0
 20
0.0
 30
0.0
  0
HATCH
  5
202
100
AcDbEntity
100
AcDbHatch
  8
FARBEN
 62
     9
 10
0.0
 20
0.0
 30
0.0
210
0.0
220
0.0
230
1.0
  2
SOLID_FILL
 70
     1
 71
     0
 91
2
 92
2
 72
     1
 73
     1
 93
16
 10
1.590646
 20
1.449235
 42
0.0
 10
1.916161
 20
1.449235
 42
0.0
 10
1.916161
 20
1.472235
 42
0.0
 10
1.794775
 20
1.472235
 42
-0.414214
 10
1.786775
 20
1.480235
 42
0.0
 10
1.786775
 20
1.598308
 42
-0.414214
 10
1.794775
 20
1.606308
 42
0.0
 10
1.916161
 20
1.606308
 42
0.0
 10
1.916161
 20
1.629235
 42
0.0
 10
1.610646
 20
1.629235
 42
0.0
 10
1.610646
 20
1.614235
 42
0.0
 10
1.620766
 20
1.614235
 42
-0.557473
 10
1.62345
 20
1.609894
 42
0.0
 10
1.570646
 20
1.504235
 42
0.0
 10
1.570646
 20
1.489235
 42
0.0
 10
1.590646
 20
1.489235
 42
0.0
 97
0
 92
2
 72
     1
 73
     1
 93
8
 10
1.659733
 20
1.606308
 42
0.0
 10
1.760775
 20
1.606308
 42
-0.414214
 10
1.768775
 20
1.598308
 42
0.0
 10
1.768775
 20
1.480235
 42
-0.414214
 10
1.760775
 20
1.472235
 42
0.0
 10
1.654324
 20
1.472235
 42
-0.569438
 10
1.614179
 20
1.539894
 42
0.0
 10
1.641843
 20
1.595248
 42
-0.284131
 97
0
 75
     0
 76
     1
 98
1
 10
0.0
 20
0.0
  0
ENDBLK
  5
203
100
AcDbEntity
100
AcDbBlockEnd
  0
BLOCK
  5
204
100
AcDbEntity
100
AcDbBlockBegin
  8
0
  2
FILL_23
 70
    64
 10
0.0
 20
0.0
 30
0.0
  0
HATCH
  5
205
100
AcDbEntity
100
AcDbHatch
  8
FARBEN
 62
   253
 10
0.0
 20
0.0
 30
0.0
210
0.0
220
0.0
230
1.0
  2
SOLID_FILL
 70
     1
 71
     0
 91
1
 92
2
 72
     0
 73
     1
 93
4
 10
0.735961
 20
1.679235
 10
0.735961
 20
1.629235
 10
1.916161
 20
1.629235
 10
1.916161
 20
1.679235
 97
0
 75
     0
 76
     1
 98
1
 10
0.0
 20
0.0
  0
ENDBLK
  5
206
100
AcDbEntity
100
AcDbBlockEnd
  0
BLOCK
  5
207
100
AcDbEntity
100
AcDbBlockBegin
  8
0
  2
FILL_24
 70
    64
 10
0.0
 20
0.0
 30
0.0
  0
HATCH
  5
208
100
AcDbEntity
100
AcDbHatch
  8
FARBEN
 62
   253
 10
0.0
 20
0.0
 30
0.0
210
0.0
220
0.0
230
1.0
  2
SOLID_FILL
 70
     1
 71
     0
 91
1
 92
2
 72
     0
 73
     1
 93
4
 10
0.735961
 20
1.984235
 10
0.985961
 20
1.984235
 10
0.985961
 20
1.679235
 10
0.735961
 20
1.679235
 97
0
 75
     0
 76
     1
 98
1
 10
0.0
 20
0.0
  0
ENDBLK
  5
209
100
AcDbEntity
100
AcDbBlockEnd
  0
BLOCK
  5
20a
100
AcDbEntity
100
AcDbBlockBegin
  8
0
  2
FILL_25
 70
    64
 10
0.0
 20
0.0
 30
0.0
  0
HATCH
  5
20b
100
AcDbEntity
100
AcDbHatch
  8
FARBEN
 62
   253
 10
0.0
 20
0.0
 30
0.0
210
0.0
220
0.0
230
1.0
  2
SOLID_FILL
 70
     1
 71
     0
 91
1
 92
2
 72
     0
 73
     1
 93
4
 10
0.775961
 20
1.449235
 10
0.775961
 20
1.023249
 10
0.945961
 20
1.023249
 10
0.945961
 20
1.449235
 97
0
 75
     0
 76
     1
 98
1
 10
0.0
 20
0.0
  0
ENDBLK
  5
20c
100
AcDbEntity
100
AcDbBlockEnd
  0
BLOCK
  5
20d
100
AcDbEntity
100
AcDbBlockBegin
  8
0
  2
FILL_26
 70
    64
 10
0.0
 20
0.0
 30
0.0
  0
HATCH
  5
20e
100
AcDbEntity
100
AcDbHatch
  8
STRUKTUR
 62
     8
 10
0.0
 20
0.0
 30
0.0
210
0.0
220
0.0
230
1.0
  2
7B_SAND
 70
     0
 71
     0
 91
1
 92
2
 72
     0
 73
     1
 93
4
 10
0.985961
 20
1.434235
 10
0.985961
 20
1.023249
 10
1.001092
 20
1.023249
 10
1.001092
 20
1.434235
 97
0
 75
     0
 76
     1
 52
0.0
 41
0.018
 77
     0
 78
     2
 53
45.0
 43
0.0
 44
0.018
 45
-0.005728
 46
0.005728
 79
     4
 49
0.0
 49
-0.0054
 49
0.0
 49
-0.0081
 53
110.0
 43
0.018
 44
0.018
 45
-0.007612
 46
-0.00277
 79
     4
 49
0.0
 49
-0.00396
 49
0.0
 49
-0.00684
 98
1
 10
0.0
 20
0.0
  0
ENDBLK
  5
20f
100
AcDbEntity
100
AcDbBlockEnd
  0
BLOCK
  5
210
100
AcDbEntity
100
AcDbBlockBegin
  8
0
  2
TEXT_1
 70
    64
 10
0.0
 20
0.0
 30
0.0
  0
TEXT
  5
211
100
AcDbEntity
100
AcDbText
  8
0
 62
     7
 10
1.503716
 20
1.238581
 30
0.0
 40
0.03
  1
S
  7
STANDARD
  0
ENDBLK
  5
212
100
AcDbEntity
100
AcDbBlockEnd
  0
BLOCK
  5
213
100
AcDbEntity
100
AcDbBlockBegin
  8
0
  2
TEXT_2
 70
    64
 10
0.0
 20
0.0
 30
0.0
  0
TEXT
  5
214
100
AcDbEntity
100
AcDbText
  8
0
 62
     7
 10
0.301559
 20
3.149077
 30
0.0
 40
0.06
  1
2.5.2.3 Plivajuжa cementna koљuljica na tavanskoj ploиi
 41
0.690443
  7
STANDARD
 11
0.301559
 21
3.209077
 31
0.0
 73
     3
  0
ENDBLK
  5
215
100
AcDbEntity
100
AcDbBlockEnd
  0
BLOCK
  5
216
100
AcDbEntity
100
AcDbBlockBegin
  8
0
  2
TEXT_3
 70
    64
 10
0.0
 20
0.0
 30
0.0
  0
TEXT
  5
217
100
AcDbEntity
100
AcDbText
  8
0
 62
     7
 10
2.134429
 20
2.668755
 30
0.0
 40
0.04
  1
Konstruktivni slojevi (cm):
 41
0.684454
  7
STANDARD
 11
2.134429
 21
2.708755
 31
0.0
 73
     3
  0
ENDBLK
  5
218
100
AcDbEntity
100
AcDbBlockEnd
  0
BLOCK
  5
219
100
AcDbEntity
100
AcDbBlockBegin
  8
0
  2
TEXT_4
 70
    64
 10
0.0
 20
0.0
 30
0.0
  0
TEXT
  5
21a
100
AcDbEntity
100
AcDbText
  8
0
 62
     7
 10
2.147246
 20
2.463679
 30
0.0
 40
0.04
  1
1,5    unutraљnji malter
 41
0.633482
  7
STANDARD
 11
2.147246
 21
2.503679
 31
0.0
 73
     3
  0
TEXT
  5
21b
100
AcDbEntity
100
AcDbText
  8
0
 62
     7
 10
2.147246
 20
2.383679
 30
0.0
 40
0.04
  1
23,0  tavanica od betonskih
 41
0.683382
  7
STANDARD
 11
2.147246
 21
2.423679
 31
0.0
 73
     3
  0
TEXT
  5
21c
100
AcDbEntity
100
AcDbText
  8
0
 62
     7
 10
2.147246
 20
2.303679
 30
0.0
 40
0.04
  1
         љupljih elemenata
 41
0.583333
  7
STANDARD
 11
2.147246
 21
2.343679
 31
0.0
 73
     3
  0
TEXT
  5
21d
100
AcDbEntity
100
AcDbText
  8
0
 62
     7
 10
2.147246
 20
2.223679
 30
0.0
 40
0.04
  1
         zalivena betonom
 41
0.601824
  7
STANDARD
 11
2.147246
 21
2.263679
 31
0.0
 73
     3
  0
TEXT
  5
21e
100
AcDbEntity
100
AcDbText
  8
0
 62
     7
 10
2.147246
 20
2.143679
 30
0.0
 40
0.04
  1
         parna brana
 41
0.549153
  7
STANDARD
 11
2.147246
 21
2.183679
 31
0.0
 73
     3
  0
TEXT
  5
21f
100
AcDbEntity
100
AcDbText
  8
0
 62
     7
 10
2.147246
 20
2.063679
 30
0.0
 40
0.04
  1
         ISOVER-Flammex
 41
0.647619
  7
STANDARD
 11
2.147246
 21
2.103679
 31
0.0
 73
     3
  0
TEXT
  5
220
100
AcDbEntity
100
AcDbText
  8
0
 62
     7
 10
2.147246
 20
1.983679
 30
0.0
 40
0.04
  1
15,0  CORBLANIT-ploиe
 41
0.78797
  7
STANDARD
 11
2.147246
 21
2.023679
 31
0.0
 73
     3
  0
TEXT
  5
221
100
AcDbEntity
100
AcDbText
  8
0
 62
     7
 10
2.147246
 20
1.903679
 30
0.0
 40
0.04
  1
         EPS W 20 15 cm
 41
0.606882
  7
STANDARD
 11
2.147246
 21
1.943679
 31
0.0
 73
     3
  0
TEXT
  5
222
100
AcDbEntity
100
AcDbText
  8
0
 62
     7
 10
2.147246
 20
1.823679
 30
0.0
 40
0.04
  1
15,0  CORBLANIT-ploиe
 41
0.78797
  7
STANDARD
 11
2.147246
 21
1.863679
 31
0.0
 73
     3
  0
TEXT
  5
223
100
AcDbEntity
100
AcDbText
  8
0
 62
     7
 10
2.147246
 20
1.743679
 30
0.0
 40
0.04
  1
         EPS W 20 15 cm
 41
0.606882
  7
STANDARD
 11
2.147246
 21
1.783679
 31
0.0
 73
     3
  0
TEXT
  5
224
100
AcDbEntity
100
AcDbText
  8
0
 62
     7
 10
2.147246
 20
1.663679
 30
0.0
 40
0.04
  1
         razdvajajuжi sloj
 41
0.534247
  7
STANDARD
 11
2.147246
 21
1.703679
 31
0.0
 73
     3
  0
TEXT
  5
225
100
AcDbEntity
100
AcDbText
  8
0
 62
     7
 10
2.147246
 20
1.583679
 30
0.0
 40
0.04
  1
6,0    ojaиani estrih
 41
0.619305
  7
STANDARD
 11
2.147246
 21
1.623679
 31
0.0
 73
     3
  0
ENDBLK
  5
226
100
AcDbEntity
100
AcDbBlockEnd
  0
ENDSEC
  0
SECTION
  2
ENTITIES
  0
INSERT
  5
227
100
AcDbEntity
100
AcDbInsert
  8
STRUKTUR
  2
FILL_1
 10
0.0
 20
0.0
 30
0.0
  0
INSERT
  5
228
100
AcDbEntity
100
AcDbInsert
  8
FARBEN
  2
FILL_2
 10
0.0
 20
0.0
 30
0.0
  0
INSERT
  5
229
100
AcDbEntity
100
AcDbInsert
  8
FARBEN
  2
FILL_3
 10
0.0
 20
0.0
 30
0.0
  0
INSERT
  5
22a
100
AcDbEntity
100
AcDbInsert
  8
STRUKTUR
  2
FILL_4
 10
0.0
 20
0.0
 30
0.0
  0
INSERT
  5
22b
100
AcDbEntity
100
AcDbInsert
  8
FARBEN
  2
FILL_5
 10
0.0
 20
0.0
 30
0.0
  0
INSERT
  5
22c
100
AcDbEntity
100
AcDbInsert
  8
STRUKTUR
  2
FILL_6
 10
0.0
 20
0.0
 30
0.0
  0
INSERT
  5
22d
100
AcDbEntity
100
AcDbInsert
  8
STRUKTUR
  2
FILL_7
 10
0.0
 20
0.0
 30
0.0
  0
INSERT
  5
22e
100
AcDbEntity
100
AcDbInsert
  8
STRUKTUR
  2
FILL_8
 10
0.0
 20
0.0
 30
0.0
  0
INSERT
  5
22f
100
AcDbEntity
100
AcDbInsert
  8
STRUKTUR
  2
FILL_9
 10
0.0
 20
0.0
 30
0.0
  0
INSERT
  5
230
100
AcDbEntity
100
AcDbInsert
  8
STRUKTUR
  2
FILL_10
 10
0.0
 20
0.0
 30
0.0
  0
INSERT
  5
231
100
AcDbEntity
100
AcDbInsert
  8
FARBEN
  2
FILL_11
 10
0.0
 20
0.0
 30
0.0
  0
INSERT
  5
232
100
AcDbEntity
100
AcDbInsert
  8
FARBEN
  2
FILL_12
 10
0.0
 20
0.0
 30
0.0
  0
INSERT
  5
233
100
AcDbEntity
100
AcDbInsert
  8
FARBEN
  2
FILL_13
 10
0.0
 20
0.0
 30
0.0
  0
INSERT
  5
234
100
AcDbEntity
100
AcDbInsert
  8
FARBEN
  2
FILL_14
 10
0.0
 20
0.0
 30
0.0
  0
INSERT
  5
235
100
AcDbEntity
100
AcDbInsert
  8
FARBEN
  2
FILL_15
 10
0.0
 20
0.0
 30
0.0
  0
INSERT
  5
236
100
AcDbEntity
100
AcDbInsert
  8
STRUKTUR
  2
FILL_16
 10
0.0
 20
0.0
 30
0.0
  0
INSERT
  5
237
100
AcDbEntity
100
AcDbInsert
  8
FARBEN
  2
FILL_17
 10
0.0
 20
0.0
 30
0.0
  0
INSERT
  5
238
100
AcDbEntity
100
AcDbInsert
  8
FARBEN
  2
FILL_18
 10
0.0
 20
0.0
 30
0.0
  0
INSERT
  5
239
100
AcDbEntity
100
AcDbInsert
  8
FARBEN
  2
FILL_19
 10
0.0
 20
0.0
 30
0.0
  0
INSERT
  5
23a
100
AcDbEntity
100
AcDbInsert
  8
FARBEN
  2
FILL_20
 10
0.0
 20
0.0
 30
0.0
  0
INSERT
  5
23b
100
AcDbEntity
100
AcDbInsert
  8
FARBEN
  2
FILL_21
 10
0.0
 20
0.0
 30
0.0
  0
INSERT
  5
23c
100
AcDbEntity
100
AcDbInsert
  8
FARBEN
  2
FILL_22
 10
0.0
 20
0.0
 30
0.0
  0
INSERT
  5
23d
100
AcDbEntity
100
AcDbInsert
  8
FARBEN
  2
FILL_23
 10
0.0
 20
0.0
 30
0.0
  0
INSERT
  5
23e
100
AcDbEntity
100
AcDbInsert
  8
FARBEN
  2
FILL_24
 10
0.0
 20
0.0
 30
0.0
  0
INSERT
  5
23f
100
AcDbEntity
100
AcDbInsert
  8
FARBEN
  2
FILL_25
 10
0.0
 20
0.0
 30
0.0
  0
INSERT
  5
240
100
AcDbEntity
100
AcDbInsert
  8
STRUKTUR
  2
FILL_26
 10
0.0
 20
0.0
 30
0.0
  0
INSERT
  5
241
100
AcDbEntity
100
AcDbInsert
  8
OBJEKTE
 62
     7
  2
HARTE_DAMMUNG_1
 10
0.727961
 20
1.359741
 30
0.0
 50
90.0
  0
INSERT
  5
242
100
AcDbEntity
100
AcDbInsert
  8
OBJEKTE
 62
     7
  2
WEICHE_DAMMUNG_2
 10
0.895961
 20
2.044235
 30
0.0
  0
INSERT
  5
243
100
AcDbEntity
100
AcDbInsert
  8
OBJEKTE
 62
     7
  2
WEICHE_DAMMUNG_3
 10
0.709971
 20
2.124235
 30
0.0
  0
INSERT
  5
244
100
AcDbEntity
100
AcDbInsert
  8
OBJEKTE
 62
     7
  2
WEICHE_DAMMUNG_4
 10
0.990961
 20
1.984235
 30
0.0
  0
INSERT
  5
245
100
AcDbEntity
100
AcDbInsert
  8
OBJEKTE
 62
     7
  2
WEICHE_DAMMUNG_5
 10
0.895961
 20
1.989235
 30
0.0
  0
INSERT
  5
246
100
AcDbEntity
100
AcDbInsert
  8
OBJEKTE
 62
     7
  2
ABDICHTUNG_PARAMETRISCH_6
 10
0.990961
 20
1.989235
 30
0.0
 50
180.0
  0
INSERT
  5
247
100
AcDbEntity
100
AcDbInsert
  8
OBJEKTE
 62
     7
  2
HARTE_DAMMUNG_7
 10
0.990961
 20
1.834235
 30
0.0
  0
INSERT
  5
248
100
AcDbEntity
100
AcDbInsert
  8
OBJEKTE
 62
     7
  2
ABDICHTUNG_PARAMETRISCH_8
 10
0.985961
 20
1.679235
 30
0.0
  0
INSERT
  5
249
100
AcDbEntity
100
AcDbInsert
  8
OBJEKTE
 62
     7
  2
ABDICHTUNG_PARAMETRISCH_9
 10
0.990961
 20
1.684235
 30
0.0
 50
90.0
  0
INSERT
  5
24a
100
AcDbEntity
100
AcDbInsert
  8
OBJEKTE
 62
     7
  2
HARTE_DAMMUNG_10
 10
0.990961
 20
1.684235
 30
0.0
  0
LINE
  5
24b
100
AcDbEntity
100
AcDbLine
  8
TEXT
 62
     7
 10
1.514963
 20
2.060973
 30
0.0
 11
1.514963
 21
1.278562
 31
0.0
  0
LINE
  5
24c
100
AcDbEntity
100
AcDbLine
  8
LINIEN
 62
     7
 10
0.523961
 20
1.831951
 30
0.0
 11
0.324369
 21
1.632359
 31
0.0
  0
LINE
  5
24d
100
AcDbEntity
100
AcDbLine
  8
LINIEN
  6
STRICHLINIE
 62
     7
 10
0.523961
 20
1.831951
 30
0.0
 11
0.816246
 21
2.124235
 31
0.0
  0
LINE
  5
24e
100
AcDbEntity
100
AcDbLine
  8
LINIEN
 62
     7
 10
0.735961
 20
1.659235
 30
0.0
 11
0.735961
 21
1.454235
 31
0.0
  0
LINE
  5
24f
100
AcDbEntity
100
AcDbLine
  8
LINIEN
 62
     7
 10
0.895961
 20
1.984235
 30
0.0
 11
1.195961
 21
1.984235
 31
0.0
  0
LINE
  5
250
100
AcDbEntity
100
AcDbLine
  8
LINIEN
 62
     7
 10
0.735961
 20
1.721903
 30
0.0
 11
0.735961
 21
1.859235
 31
0.0
  0
LINE
  5
251
100
AcDbEntity
100
AcDbLine
  8
LINIEN
 62
     7
 10
0.727961
 20
1.419338
 30
0.0
 11
0.735961
 21
1.419338
 31
0.0
  0
LINE
  5
252
100
AcDbEntity
100
AcDbLine
  8
LINIEN
 62
     7
 10
0.735961
 20
1.386605
 30
0.0
 11
0.735961
 21
1.523938
 31
0.0
  0
LINE
  5
253
100
AcDbEntity
100
AcDbLine
  8
LINIEN
 62
     7
 10
0.727961
 20
1.359741
 30
0.0
 11
0.735961
 21
1.359741
 31
0.0
  0
LINE
  5
254
100
AcDbEntity
100
AcDbLine
  8
LINIEN
 62
     7
 10
0.735961
 20
1.230161
 30
0.0
 11
0.735961
 21
1.367493
 31
0.0
  0
LINE
  5
255
100
AcDbEntity
100
AcDbLine
  8
LINIEN
 62
     7
 10
0.735961
 20
1.454235
 30
0.0
 11
0.735961
 21
1.023249
 31
0.0
  0
LINE
  5
256
100
AcDbEntity
100
AcDbLine
  8
LINIEN
 62
     7
 10
0.735961
 20
1.238742
 30
0.0
 11
0.735961
 21
1.038742
 31
0.0
  0
LINE
  5
257
100
AcDbEntity
100
AcDbLine
  8
LINIEN
 62
     7
 10
0.735961
 20
1.859235
 30
0.0
 11
0.735961
 21
1.659235
 31
0.0
  0
LINE
  5
258
100
AcDbEntity
100
AcDbLine
  8
LINIEN
 62
     7
 10
0.727961
 20
1.299921
 30
0.0
 11
0.735961
 21
1.299921
 31
0.0
  0
LINE
  5
259
100
AcDbEntity
100
AcDbLine
  8
LINIEN
  6
STRICHLINIE
 62
     7
 10
0.766325
 20
1.484891
 30
0.0
 11
0.766325
 21
1.954178
 31
0.0
  0
LINE
  5
25a
100
AcDbEntity
100
AcDbLine
  8
LINIEN
 62
     7
 10
0.895961
 20
2.044235
 30
0.0
 11
1.195961
 21
2.044235
 31
0.0
  0
LINE
  5
25b
100
AcDbEntity
100
AcDbLine
  8
LINIEN
 62
     7
 10
1.195961
 20
2.244235
 30
0.0
 11
0.709971
 21
2.244235
 31
0.0
  0
LINE
  5
25c
100
AcDbEntity
100
AcDbLine
  8
OBJEKTE
 62
     7
 10
0.527961
 20
1.270883
 30
0.0
 11
0.727961
 21
1.182988
 31
0.0
  0
LINE
  5
25d
100
AcDbEntity
100
AcDbLine
  8
LINIEN
 62
     7
 10
0.735961
 20
2.124235
 30
0.0
 11
0.895961
 21
1.984235
 31
0.0
  0
LINE
  5
25e
100
AcDbEntity
100
AcDbLine
  8
LINIEN
 62
     7
 10
0.727961
 20
1.637676
 30
0.0
 11
0.735961
 21
1.637676
 31
0.0
  0
LINE
  5
25f
100
AcDbEntity
100
AcDbLine
  8
LINIEN
 62
     7
 10
0.727961
 20
1.919247
 30
0.0
 11
0.735961
 21
1.919247
 31
0.0
  0
LINE
  5
260
100
AcDbEntity
100
AcDbLine
  8
LINIEN
 62
     7
 10
0.727961
 20
1.577968
 30
0.0
 11
0.735961
 21
1.577968
 31
0.0
  0
LINE
  5
261
100
AcDbEntity
100
AcDbLine
  8
LINIEN
 62
     7
 10
0.727961
 20
1.506263
 30
0.0
 11
0.727961
 21
1.368931
 31
0.0
  0
LINE
  5
262
100
AcDbEntity
100
AcDbLine
  8
LINIEN
 62
     7
 10
1.195961
 20
1.984235
 30
0.0
 11
1.195961
 21
2.244235
 31
0.0
  0
LINE
  5
263
100
AcDbEntity
100
AcDbLine
  8
LINIEN
 62
     7
 10
0.727961
 20
1.138063
 30
0.0
 11
0.735961
 21
1.138063
 31
0.0
  0
LINE
  5
264
100
AcDbEntity
100
AcDbLine
  8
LINIEN
 62
     7
 10
0.735961
 20
1.077279
 30
0.0
 11
0.727961
 21
1.077279
 31
0.0
  0
LINE
  5
265
100
AcDbEntity
100
AcDbLine
  8
LINIEN
 62
     7
 10
0.727961
 20
1.349819
 30
0.0
 11
0.727961
 21
1.212487
 31
0.0
  0
LINE
  5
266
100
AcDbEntity
100
AcDbLine
  8
LINIEN
 62
     7
 10
0.522116
 20
2.05638
 30
0.0
 11
0.522116
 21
2.050268
 31
0.0
  0
LINE
  5
267
100
AcDbEntity
100
AcDbLine
  8
LINIEN
 62
     7
 10
0.522116
 20
2.046346
 30
0.0
 11
0.522116
 21
2.040313
 31
0.0
  0
LINE
  5
268
100
AcDbEntity
100
AcDbLine
  8
LINIEN
 62
     7
 10
0.727961
 20
2.025957
 30
0.0
 11
0.727961
 21
1.829229
 31
0.0
  0
LINE
  5
269
100
AcDbEntity
100
AcDbLine
  8
LINIEN
 62
     7
 10
0.522116
 20
2.035486
 30
0.0
 11
0.522116
 21
2.001699
 31
0.0
  0
LINE
  5
26a
100
AcDbEntity
100
AcDbLine
  8
LINIEN
 62
     7
 10
0.727961
 20
1.359741
 30
0.0
 11
0.527961
 21
1.359741
 31
0.0
  0
LINE
  5
26b
100
AcDbEntity
100
AcDbLine
  8
LINIEN
 62
     7
 10
0.527961
 20
1.359741
 30
0.0
 11
0.527961
 21
1.859741
 31
0.0
  0
LINE
  5
26c
100
AcDbEntity
100
AcDbLine
  8
LINIEN
 62
     7
 10
0.527961
 20
1.859741
 30
0.0
 11
0.727961
 21
1.859741
 31
0.0
  0
LINE
  5
26d
100
AcDbEntity
100
AcDbLine
  8
OBJEKTE
 62
     7
 10
0.727961
 20
1.859741
 30
0.0
 11
0.523961
 21
1.946317
 31
0.0
  0
LINE
  5
26e
100
AcDbEntity
100
AcDbLine
  8
OBJEKTE
 62
     7
 10
0.523961
 20
1.946317
 30
0.0
 11
0.727961
 21
2.025957
 31
0.0
  0
LINE
  5
26f
100
AcDbEntity
100
AcDbLine
  8
LINIEN
 62
     7
 10
0.526016
 20
1.859741
 30
0.0
 11
0.526016
 21
1.829577
 31
0.0
  0
LINE
  5
270
100
AcDbEntity
100
AcDbLine
  8
LINIEN
 62
     7
 10
0.526016
 20
1.859741
 30
0.0
 11
0.526016
 21
1.889731
 31
0.0
  0
LINE
  5
271
100
AcDbEntity
100
AcDbLine
  8
LINIEN
 62
     7
 10
0.526016
 20
1.829577
 30
0.0
 11
0.527961
 21
1.829577
 31
0.0
  0
LINE
  5
272
100
AcDbEntity
100
AcDbLine
  8
LINIEN
 62
     7
 10
0.526016
 20
1.889731
 30
0.0
 11
0.527961
 21
1.889731
 31
0.0
  0
LINE
  5
273
100
AcDbEntity
100
AcDbLine
  8
LINIEN
 62
     7
 10
0.798604
 20
1.859741
 30
0.0
 11
0.794593
 21
1.85573
 31
0.0
  0
LINE
  5
274
100
AcDbEntity
100
AcDbLine
  8
LINIEN
 62
     7
 10
0.794593
 20
1.863752
 30
0.0
 11
0.798604
 21
1.859741
 31
0.0
  0
LINE
  5
275
100
AcDbEntity
100
AcDbLine
  8
LINIEN
  6
STRICHLINIE
 62
     7
 10
0.527961
 20
1.85573
 30
0.0
 11
0.794593
 21
1.85573
 31
0.0
  0
LINE
  5
276
100
AcDbEntity
100
AcDbLine
  8
LINIEN
  6
STRICHLINIE
 62
     7
 10
0.527961
 20
1.863752
 30
0.0
 11
0.794593
 21
1.863752
 31
0.0
  0
LINE
  5
277
100
AcDbEntity
100
AcDbLine
  8
LINIEN
 62
     7
 10
0.526016
 20
1.609741
 30
0.0
 11
0.526016
 21
1.579577
 31
0.0
  0
LINE
  5
278
100
AcDbEntity
100
AcDbLine
  8
LINIEN
 62
     7
 10
0.526016
 20
1.609741
 30
0.0
 11
0.526016
 21
1.639731
 31
0.0
  0
LINE
  5
279
100
AcDbEntity
100
AcDbLine
  8
LINIEN
 62
     7
 10
0.526016
 20
1.579577
 30
0.0
 11
0.527961
 21
1.579577
 31
0.0
  0
LINE
  5
27a
100
AcDbEntity
100
AcDbLine
  8
LINIEN
 62
     7
 10
0.526016
 20
1.639731
 30
0.0
 11
0.527961
 21
1.639731
 31
0.0
  0
LINE
  5
27b
100
AcDbEntity
100
AcDbLine
  8
LINIEN
 62
     7
 10
0.798604
 20
1.609741
 30
0.0
 11
0.794593
 21
1.60573
 31
0.0
  0
LINE
  5
27c
100
AcDbEntity
100
AcDbLine
  8
LINIEN
 62
     7
 10
0.794593
 20
1.613752
 30
0.0
 11
0.798604
 21
1.609741
 31
0.0
  0
LINE
  5
27d
100
AcDbEntity
100
AcDbLine
  8
LINIEN
  6
STRICHLINIE
 62
     7
 10
0.527961
 20
1.60573
 30
0.0
 11
0.794593
 21
1.60573
 31
0.0
  0
LINE
  5
27e
100
AcDbEntity
100
AcDbLine
  8
LINIEN
  6
STRICHLINIE
 62
     7
 10
0.527961
 20
1.613752
 30
0.0
 11
0.794593
 21
1.613752
 31
0.0
  0
LINE
  5
27f
100
AcDbEntity
100
AcDbLine
  8
LINIEN
 62
     7
 10
0.526016
 20
1.359741
 30
0.0
 11
0.526016
 21
1.329577
 31
0.0
  0
LINE
  5
280
100
AcDbEntity
100
AcDbLine
  8
LINIEN
 62
     7
 10
0.526016
 20
1.359741
 30
0.0
 11
0.526016
 21
1.389731
 31
0.0
  0
LINE
  5
281
100
AcDbEntity
100
AcDbLine
  8
LINIEN
 62
     7
 10
0.526016
 20
1.329577
 30
0.0
 11
0.527961
 21
1.329577
 31
0.0
  0
LINE
  5
282
100
AcDbEntity
100
AcDbLine
  8
LINIEN
 62
     7
 10
0.526016
 20
1.389731
 30
0.0
 11
0.527961
 21
1.389731
 31
0.0
  0
LINE
  5
283
100
AcDbEntity
100
AcDbLine
  8
LINIEN
 62
     7
 10
0.798604
 20
1.359741
 30
0.0
 11
0.794593
 21
1.35573
 31
0.0
  0
LINE
  5
284
100
AcDbEntity
100
AcDbLine
  8
LINIEN
 62
     7
 10
0.794593
 20
1.363752
 30
0.0
 11
0.798604
 21
1.359741
 31
0.0
  0
LINE
  5
285
100
AcDbEntity
100
AcDbLine
  8
LINIEN
  6
STRICHLINIE
 62
     7
 10
0.527961
 20
1.35573
 30
0.0
 11
0.794593
 21
1.35573
 31
0.0
  0
LINE
  5
286
100
AcDbEntity
100
AcDbLine
  8
LINIEN
  6
STRICHLINIE
 62
     7
 10
0.527961
 20
1.363752
 30
0.0
 11
0.794593
 21
1.363752
 31
0.0
  0
LINE
  5
287
100
AcDbEntity
100
AcDbLine
  8
LINIEN
 62
     7
 10
0.526016
 20
1.109741
 30
0.0
 11
0.526016
 21
1.079577
 31
0.0
  0
LINE
  5
288
100
AcDbEntity
100
AcDbLine
  8
LINIEN
 62
     7
 10
0.526016
 20
1.109741
 30
0.0
 11
0.526016
 21
1.139731
 31
0.0
  0
LINE
  5
289
100
AcDbEntity
100
AcDbLine
  8
LINIEN
 62
     7
 10
0.526016
 20
1.079577
 30
0.0
 11
0.527961
 21
1.079577
 31
0.0
  0
LINE
  5
28a
100
AcDbEntity
100
AcDbLine
  8
LINIEN
 62
     7
 10
0.526016
 20
1.139731
 30
0.0
 11
0.527961
 21
1.139731
 31
0.0
  0
LINE
  5
28b
100
AcDbEntity
100
AcDbLine
  8
LINIEN
 62
     7
 10
0.798604
 20
1.109741
 30
0.0
 11
0.794593
 21
1.10573
 31
0.0
  0
LINE
  5
28c
100
AcDbEntity
100
AcDbLine
  8
LINIEN
 62
     7
 10
0.794593
 20
1.113752
 30
0.0
 11
0.798604
 21
1.109741
 31
0.0
  0
LINE
  5
28d
100
AcDbEntity
100
AcDbLine
  8
LINIEN
 62
     7
 10
0.735961
 20
1.684235
 30
0.0
 11
0.735961
 21
1.454235
 31
0.0
  0
LINE
  5
28e
100
AcDbEntity
100
AcDbLine
  8
LINIEN
  6
STRICHLINIE
 62
     7
 10
0.527961
 20
1.10573
 30
0.0
 11
0.794593
 21
1.10573
 31
0.0
  0
LINE
  5
28f
100
AcDbEntity
100
AcDbLine
  8
LINIEN
 62
     7
 10
0.985961
 20
1.684235
 30
0.0
 11
0.985961
 21
1.984235
 31
0.0
  0
LINE
  5
290
100
AcDbEntity
100
AcDbLine
  8
LINIEN
 62
     7
 10
0.985961
 20
1.984235
 30
0.0
 11
0.735961
 21
1.984235
 31
0.0
  0
LINE
  5
291
100
AcDbEntity
100
AcDbLine
  8
LINIEN
 62
     7
 10
0.735961
 20
1.984235
 30
0.0
 11
0.735961
 21
1.684235
 31
0.0
  0
LINE
  5
292
100
AcDbEntity
100
AcDbLine
  8
LINIEN
 62
     7
 10
0.848802
 20
2.124235
 30
0.0
 11
0.878816
 21
2.124235
 31
0.0
  0
LINE
  5
293
100
AcDbEntity
100
AcDbLine
  8
LINIEN
 62
     7
 10
0.848802
 20
2.124235
 30
0.0
 11
0.871961
 21
2.124235
 31
0.0
  0
LINE
  5
294
100
AcDbEntity
100
AcDbLine
  8
LINIEN
 62
     7
 10
0.727961
 20
1.800235
 30
0.0
 11
0.735961
 21
1.800235
 31
0.0
  0
LINE
  5
295
100
AcDbEntity
100
AcDbLine
  8
LINIEN
  6
STRICHLINIE
 62
     7
 10
0.527961
 20
1.113752
 30
0.0
 11
0.794593
 21
1.113752
 31
0.0
  0
LINE
  5
296
100
AcDbEntity
100
AcDbLine
  8
LINIEN
 62
     7
 10
0.895961
 20
2.124235
 30
0.0
 11
0.735961
 21
1.984235
 31
0.0
  0
LINE
  5
297
100
AcDbEntity
100
AcDbLine
  8
OBJEKTE
 62
     7
 10
0.727961
 20
1.359741
 30
0.0
 11
0.527961
 21
1.270883
 31
0.0
  0
LINE
  5
298
100
AcDbEntity
100
AcDbLine
  8
OBJEKTE
 62
     7
 10
0.727961
 20
1.182988
 30
0.0
 11
0.527961
 21
1.094071
 31
0.0
  0
LINE
  5
299
100
AcDbEntity
100
AcDbLine
  8
OBJEKTE
 62
     7
 10
0.527961
 20
1.094071
 30
0.0
 11
0.688017
 21
1.023249
 31
0.0
  0
LINE
  5
29a
100
AcDbEntity
100
AcDbLine
  8
LINIEN
 62
     7
 10
0.727961
 20
1.841561
 30
0.0
 11
0.727961
 21
1.023249
 31
0.0
  0
LINE
  5
29b
100
AcDbEntity
100
AcDbLine
  8
LINIEN
 62
     7
 10
0.527961
 20
1.023249
 30
0.0
 11
0.527961
 21
2.025957
 31
0.0
  0
LINE
  5
29c
100
AcDbEntity
100
AcDbLine
  8
LINIEN
 62
     7
 10
0.727961
 20
1.859741
 30
0.0
 11
0.735961
 21
1.859741
 31
0.0
  0
LINE
  5
29d
100
AcDbEntity
100
AcDbLine
  8
LINIEN
 62
     7
 10
0.895961
 20
1.984235
 30
0.0
 11
0.895961
 21
2.124235
 31
0.0
  0
LINE
  5
29e
100
AcDbEntity
100
AcDbLine
  8
LINIEN
 62
     7
 10
0.895961
 20
1.984235
 30
0.0
 11
0.735961
 21
1.984235
 31
0.0
  0
LINE
  5
29f
100
AcDbEntity
100
AcDbLine
  8
LINIEN
 62
     7
 10
0.735961
 20
1.984235
 30
0.0
 11
0.735961
 21
2.124235
 31
0.0
  0
LINE
  5
2a0
100
AcDbEntity
100
AcDbLine
  8
LINIEN
 62
     7
 10
0.735961
 20
2.124235
 30
0.0
 11
0.89653
 21
2.124235
 31
0.0
  0
LINE
  5
2a1
100
AcDbEntity
100
AcDbLine
  8
LINIEN
 62
     7
 10
1.195961
 20
1.984235
 30
0.0
 11
1.205961
 21
1.984235
 31
0.0
  0
LINE
  5
2a2
100
AcDbEntity
100
AcDbLine
  8
LINIEN
 62
     7
 10
0.735961
 20
1.679235
 30
0.0
 11
1.916161
 21
1.679235
 31
0.0
  0
LINE
  5
2a3
100
AcDbEntity
100
AcDbLine
  8
LINIEN
 62
     7
 10
0.985961
 20
1.984235
 30
0.0
 11
1.916162
 21
1.984235
 31
0.0
  0
LINE
  5
2a4
100
AcDbEntity
100
AcDbLine
  8
LINIEN
 62
     7
 10
1.141335
 20
2.6756
 30
0.0
 11
0.324369
 21
1.858633
 31
0.0
  0
LINE
  5
2a5
100
AcDbEntity
100
AcDbLine
  8
LINIEN
  6
STRICHLINIE
 62
     7
 10
0.820944
 20
2.139766
 30
0.0
 11
0.820944
 21
1.82459
 31
0.0
  0
LINE
  5
2a6
100
AcDbEntity
100
AcDbLine
  8
LINIEN
  6
STRICHLINIE
 62
     7
 10
0.810978
 20
2.139766
 30
0.0
 11
0.810978
 21
1.82459
 31
0.0
  0
LINE
  5
2a7
100
AcDbEntity
100
AcDbLine
  8
LINIEN
  6
STRICHLINIE
 62
     7
 10
0.842382
 20
1.82459
 30
0.0
 11
0.842382
 21
1.841246
 31
0.0
  0
LINE
  5
2a8
100
AcDbEntity
100
AcDbLine
  8
LINIEN
 62
     7
 10
0.83912
 20
2.124235
 30
0.0
 11
0.83912
 21
2.127398
 31
0.0
  0
LINE
  5
2a9
100
AcDbEntity
100
AcDbLine
  8
LINIEN
 62
     7
 10
0.83912
 20
2.127398
 30
0.0
 11
0.815961
 21
2.127398
 31
0.0
  0
LINE
  5
2aa
100
AcDbEntity
100
AcDbLine
  8
LINIEN
 62
     7
 10
0.830126
 20
2.127398
 30
0.0
 11
0.830126
 21
2.139766
 31
0.0
  0
LINE
  5
2ab
100
AcDbEntity
100
AcDbLine
  8
LINIEN
 62
     7
 10
0.830126
 20
2.139766
 30
0.0
 11
0.815961
 21
2.139766
 31
0.0
  0
LINE
  5
2ac
100
AcDbEntity
100
AcDbLine
  8
LINIEN
 62
     7
 10
0.820944
 20
2.139766
 30
0.0
 11
0.820944
 21
2.145949
 31
0.0
  0
LINE
  5
2ad
100
AcDbEntity
100
AcDbLine
  8
LINIEN
 62
     7
 10
0.820944
 20
2.145949
 30
0.0
 11
0.815961
 21
2.145949
 31
0.0
  0
LINE
  5
2ae
100
AcDbEntity
100
AcDbLine
  8
LINIEN
 62
     7
 10
0.792802
 20
2.124235
 30
0.0
 11
0.792802
 21
2.127398
 31
0.0
  0
LINE
  5
2af
100
AcDbEntity
100
AcDbLine
  8
LINIEN
 62
     7
 10
0.792802
 20
2.127398
 30
0.0
 11
0.815961
 21
2.127398
 31
0.0
  0
LINE
  5
2b0
100
AcDbEntity
100
AcDbLine
  8
LINIEN
 62
     7
 10
0.801796
 20
2.127398
 30
0.0
 11
0.801796
 21
2.139766
 31
0.0
  0
LINE
  5
2b1
100
AcDbEntity
100
AcDbLine
  8
LINIEN
 62
     7
 10
0.801796
 20
2.139766
 30
0.0
 11
0.815961
 21
2.139766
 31
0.0
  0
LINE
  5
2b2
100
AcDbEntity
100
AcDbLine
  8
LINIEN
 62
     7
 10
0.810978
 20
2.139766
 30
0.0
 11
0.810978
 21
2.145949
 31
0.0
  0
LINE
  5
2b3
100
AcDbEntity
100
AcDbLine
  8
LINIEN
 62
     7
 10
0.810978
 20
2.145949
 30
0.0
 11
0.815961
 21
2.145949
 31
0.0
  0
LINE
  5
2b4
100
AcDbEntity
100
AcDbLine
  8
LINIEN
 62
     7
 10
0.807828
 20
2.139766
 30
0.0
 11
0.807828
 21
2.127398
 31
0.0
  0
LINE
  5
2b5
100
AcDbEntity
100
AcDbLine
  8
LINIEN
 62
     7
 10
0.824095
 20
2.139766
 30
0.0
 11
0.824095
 21
2.127398
 31
0.0
  0
LINE
  5
2b6
100
AcDbEntity
100
AcDbLine
  8
LINIEN
  6
STRICHLINIE
 62
     7
 10
0.842382
 20
1.841246
 30
0.0
 11
0.852382
 21
1.841246
 31
0.0
  0
LINE
  5
2b7
100
AcDbEntity
100
AcDbLine
  8
LINIEN
  6
STRICHLINIE
 62
     7
 10
0.852382
 20
1.82459
 30
0.0
 11
0.852382
 21
1.841246
 31
0.0
  0
LINE
  5
2b8
100
AcDbEntity
100
AcDbLine
  8
LINIEN
  6
STRICHLINIE
 62
     7
 10
0.874192
 20
1.957769
 30
0.0
 11
0.855847
 21
1.934481
 31
0.0
  0
LINE
  5
2b9
100
AcDbEntity
100
AcDbLine
  8
LINIEN
  6
STRICHLINIE
 62
     7
 10
0.771364
 20
1.959217
 30
0.0
 11
0.877726
 21
1.959217
 31
0.0
  0
LINE
  5
2ba
100
AcDbEntity
100
AcDbLine
  8
LINIEN
  6
STRICHLINIE
 62
     7
 10
0.882765
 20
1.954178
 30
0.0
 11
0.882765
 21
1.484891
 31
0.0
  0
LINE
  5
2bb
100
AcDbEntity
100
AcDbLine
  8
LINIEN
  6
STRICHLINIE
 62
     7
 10
0.877726
 20
1.479852
 30
0.0
 11
0.771364
 21
1.479852
 31
0.0
  0
LINE
  5
2bc
100
AcDbEntity
100
AcDbLine
  8
LINIEN
  6
STRICHLINIE
 62
     7
 10
0.881105
 20
1.95044
 30
0.0
 11
0.863599
 21
1.928218
 31
0.0
  0
LINE
  5
2bd
100
AcDbEntity
100
AcDbLine
  8
LINIEN
 62
     7
 10
1.205961
 20
1.984235
 30
0.0
 11
1.205961
 21
2.057881
 31
0.0
  0
LINE
  5
2be
100
AcDbEntity
100
AcDbLine
  8
LINIEN
 62
     7
 10
1.195961
 20
2.057881
 30
0.0
 11
1.205961
 21
2.057881
 31
0.0
  0
LINE
  5
2bf
100
AcDbEntity
100
AcDbLine
  8
OBJEKTE
 62
     7
 10
0.695599
 20
2.071207
 30
0.0
 11
0.656714
 21
2.14451
 31
0.0
  0
LINE
  5
2c0
100
AcDbEntity
100
AcDbLine
  8
OBJEKTE
 62
     7
 10
0.551201
 20
2.046891
 30
0.0
 11
0.555925
 21
2.061852
 31
0.0
  0
LINE
  5
2c1
100
AcDbEntity
100
AcDbLine
  8
OBJEKTE
 62
     7
 10
0.570744
 20
2.04909
 30
0.0
 11
0.5552
 21
2.069055
 31
0.0
  0
LINE
  5
2c2
100
AcDbEntity
100
AcDbLine
  8
OBJEKTE
 62
     7
 10
0.600599
 20
2.060968
 30
0.0
 11
0.58178
 21
2.088469
 31
0.0
  0
LINE
  5
2c3
100
AcDbEntity
100
AcDbLine
  8
OBJEKTE
 62
     7
 10
0.574622
 20
2.058916
 30
0.0
 11
0.582054
 21
2.070284
 31
0.0
  0
LINE
  5
2c4
100
AcDbEntity
100
AcDbLine
  8
OBJEKTE
 62
     7
 10
0.607043
 20
2.064025
 30
0.0
 11
0.618882
 21
2.09428
 31
0.0
  0
LINE
  5
2c5
100
AcDbEntity
100
AcDbLine
  8
OBJEKTE
 62
     7
 10
0.645061
 20
2.067105
 30
0.0
 11
0.615411
 21
2.11558
 31
0.0
  0
LINE
  5
2c6
100
AcDbEntity
100
AcDbLine
  8
OBJEKTE
 62
     7
 10
0.65934
 20
2.12848
 30
0.0
 11
0.648492
 21
2.0627
 31
0.0
  0
LINE
  5
2c7
100
AcDbEntity
100
AcDbLine
  8
OBJEKTE
 62
     7
 10
0.706507
 20
2.168918
 30
0.0
 11
0.699101
 21
2.065188
 31
0.0
  0
LINE
  5
2c8
100
AcDbEntity
100
AcDbLine
  8
OBJEKTE
 62
     7
 10
0.702842
 20
2.182605
 30
0.0
 11
0.709971
 21
2.168354
 31
0.0
  0
LINE
  5
2c9
100
AcDbEntity
100
AcDbLine
  8
OBJEKTE
 62
     7
 10
0.538483
 20
2.056737
 30
0.0
 11
0.547377
 21
2.049519
 31
0.0
  0
LINE
  5
2ca
100
AcDbEntity
100
AcDbLine
  8
OBJEKTE
 62
     7
 10
0.532587
 20
2.043149
 30
0.0
 11
0.534879
 21
2.065899
 31
0.0
  0
LINE
  5
2cb
100
AcDbEntity
100
AcDbLine
  8
LINIEN
 62
     7
 10
0.991188
 20
1.834235
 30
0.0
 11
1.916162
 21
1.834235
 31
0.0
  0
LINE
  5
2cc
100
AcDbEntity
100
AcDbLine
  8
LINIEN
 62
     7
 10
0.816246
 20
2.124235
 30
0.0
 11
1.36761
 21
2.6756
 31
0.0
  0
LINE
  5
2cd
100
AcDbEntity
100
AcDbLine
  8
LINIEN
 62
     7
 10
0.430907
 20
1.965171
 30
0.0
 11
0.413229
 21
1.982849
 31
0.0
  0
LINE
  5
2ce
100
AcDbEntity
100
AcDbLine
  8
LINIEN
 62
     7
 10
0.533148
 20
2.067412
 30
0.0
 11
0.51547
 21
2.08509
 31
0.0
  0
LINE
  5
2cf
100
AcDbEntity
100
AcDbLine
  8
LINIEN
 62
     7
 10
0.51547
 20
2.08509
 30
0.0
 11
0.416475
 21
1.986095
 31
0.0
  0
LINE
  5
2d0
100
AcDbEntity
100
AcDbLine
  8
LINIEN
 62
     7
 10
0.416475
 20
1.986095
 30
0.0
 11
0.434153
 21
1.968417
 31
0.0
  0
LINE
  5
2d1
100
AcDbEntity
100
AcDbLine
  8
LINIEN
 62
     7
 10
0.635389
 20
2.169654
 30
0.0
 11
0.617712
 21
2.187331
 31
0.0
  0
LINE
  5
2d2
100
AcDbEntity
100
AcDbLine
  8
LINIEN
 62
     7
 10
0.617712
 20
2.187331
 30
0.0
 11
0.518717
 21
2.088336
 31
0.0
  0
LINE
  5
2d3
100
AcDbEntity
100
AcDbLine
  8
LINIEN
 62
     7
 10
0.518717
 20
2.088336
 30
0.0
 11
0.536394
 21
2.070659
 31
0.0
  0
LINE
  5
2d4
100
AcDbEntity
100
AcDbLine
  8
LINIEN
 62
     7
 10
0.737631
 20
2.271895
 30
0.0
 11
0.719953
 21
2.289573
 31
0.0
  0
LINE
  5
2d5
100
AcDbEntity
100
AcDbLine
  8
LINIEN
 62
     7
 10
0.719953
 20
2.289573
 30
0.0
 11
0.620958
 21
2.190578
 31
0.0
  0
LINE
  5
2d6
100
AcDbEntity
100
AcDbLine
  8
LINIEN
 62
     7
 10
0.620958
 20
2.190578
 30
0.0
 11
0.638636
 21
2.1729
 31
0.0
  0
LINE
  5
2d7
100
AcDbEntity
100
AcDbLine
  8
LINIEN
 62
     7
 10
0.839872
 20
2.374136
 30
0.0
 11
0.822194
 21
2.391814
 31
0.0
  0
LINE
  5
2d8
100
AcDbEntity
100
AcDbLine
  8
LINIEN
 62
     7
 10
0.822194
 20
2.391814
 30
0.0
 11
0.7232
 21
2.292819
 31
0.0
  0
LINE
  5
2d9
100
AcDbEntity
100
AcDbLine
  8
LINIEN
 62
     7
 10
0.7232
 20
2.292819
 30
0.0
 11
0.740877
 21
2.275141
 31
0.0
  0
LINE
  5
2da
100
AcDbEntity
100
AcDbLine
  8
LINIEN
 62
     7
 10
0.942114
 20
2.476378
 30
0.0
 11
0.924436
 21
2.494055
 31
0.0
  0
LINE
  5
2db
100
AcDbEntity
100
AcDbLine
  8
LINIEN
 62
     7
 10
0.924436
 20
2.494055
 30
0.0
 11
0.825441
 21
2.39506
 31
0.0
  0
LINE
  5
2dc
100
AcDbEntity
100
AcDbLine
  8
LINIEN
 62
     7
 10
0.825441
 20
2.39506
 30
0.0
 11
0.843119
 21
2.377383
 31
0.0
  0
LINE
  5
2dd
100
AcDbEntity
100
AcDbLine
  8
LINIEN
 62
     7
 10
1.044355
 20
2.578619
 30
0.0
 11
1.026677
 21
2.596297
 31
0.0
  0
LINE
  5
2de
100
AcDbEntity
100
AcDbLine
  8
LINIEN
 62
     7
 10
1.026677
 20
2.596297
 30
0.0
 11
0.927682
 21
2.497302
 31
0.0
  0
LINE
  5
2df
100
AcDbEntity
100
AcDbLine
  8
LINIEN
 62
     7
 10
0.927682
 20
2.497302
 30
0.0
 11
0.94536
 21
2.479624
 31
0.0
  0
LINE
  5
2e0
100
AcDbEntity
100
AcDbLine
  8
LINIEN
 62
     7
 10
1.029924
 20
2.599543
 30
0.0
 11
1.047601
 21
2.581865
 31
0.0
  0
LINE
  5
2e1
100
AcDbEntity
100
AcDbLine
  8
LINIEN
 62
     7
 10
0.336925
 20
1.912942
 30
0.0
 11
0.340124
 21
1.909743
 31
0.0
  0
LINE
  5
2e2
100
AcDbEntity
100
AcDbLine
  8
LINIEN
 62
     7
 10
0.343264
 20
1.919281
 30
0.0
 11
0.346463
 21
1.916083
 31
0.0
  0
LINE
  5
2e3
100
AcDbEntity
100
AcDbLine
  8
LINIEN
 62
     7
 10
0.349604
 20
1.925621
 30
0.0
 11
0.352803
 21
1.922422
 31
0.0
  0
LINE
  5
2e4
100
AcDbEntity
100
AcDbLine
  8
LINIEN
 62
     7
 10
0.355943
 20
1.93196
 30
0.0
 11
0.359142
 21
1.928761
 31
0.0
  0
LINE
  5
2e5
100
AcDbEntity
100
AcDbLine
  8
LINIEN
 62
     7
 10
0.362283
 20
1.9383
 30
0.0
 11
0.365481
 21
1.935101
 31
0.0
  0
LINE
  5
2e6
100
AcDbEntity
100
AcDbLine
  8
LINIEN
 62
     7
 10
0.368622
 20
1.944639
 30
0.0
 11
0.371821
 21
1.94144
 31
0.0
  0
LINE
  5
2e7
100
AcDbEntity
100
AcDbLine
  8
LINIEN
 62
     7
 10
0.374962
 20
1.950979
 30
0.0
 11
0.37816
 21
1.94778
 31
0.0
  0
LINE
  5
2e8
100
AcDbEntity
100
AcDbLine
  8
LINIEN
 62
     7
 10
0.381301
 20
1.957318
 30
0.0
 11
0.3845
 21
1.954119
 31
0.0
  0
LINE
  5
2e9
100
AcDbEntity
100
AcDbLine
  8
LINIEN
 62
     7
 10
0.387641
 20
1.963658
 30
0.0
 11
0.390839
 21
1.960459
 31
0.0
  0
LINE
  5
2ea
100
AcDbEntity
100
AcDbLine
  8
LINIEN
 62
     7
 10
0.39398
 20
1.969997
 30
0.0
 11
0.397179
 21
1.966798
 31
0.0
  0
LINE
  5
2eb
100
AcDbEntity
100
AcDbLine
  8
LINIEN
 62
     7
 10
0.40032
 20
1.976337
 30
0.0
 11
0.403518
 21
1.973138
 31
0.0
  0
LINE
  5
2ec
100
AcDbEntity
100
AcDbLine
  8
LINIEN
 62
     7
 10
0.406659
 20
1.982676
 30
0.0
 11
0.409858
 21
1.979477
 31
0.0
  0
LINE
  5
2ed
100
AcDbEntity
100
AcDbLine
  8
LINIEN
 62
     7
 10
0.412998
 20
1.989016
 30
0.0
 11
0.416197
 21
1.985817
 31
0.0
  0
LINE
  5
2ee
100
AcDbEntity
100
AcDbLine
  8
LINIEN
 62
     7
 10
0.419338
 20
1.995355
 30
0.0
 11
0.422537
 21
1.992156
 31
0.0
  0
LINE
  5
2ef
100
AcDbEntity
100
AcDbLine
  8
LINIEN
 62
     7
 10
0.425677
 20
2.001694
 30
0.0
 11
0.428876
 21
1.998496
 31
0.0
  0
LINE
  5
2f0
100
AcDbEntity
100
AcDbLine
  8
LINIEN
 62
     7
 10
0.432017
 20
2.008034
 30
0.0
 11
0.435216
 21
2.004835
 31
0.0
  0
LINE
  5
2f1
100
AcDbEntity
100
AcDbLine
  8
LINIEN
 62
     7
 10
0.438356
 20
2.014373
 30
0.0
 11
0.441555
 21
2.011175
 31
0.0
  0
LINE
  5
2f2
100
AcDbEntity
100
AcDbLine
  8
LINIEN
 62
     7
 10
0.444696
 20
2.020713
 30
0.0
 11
0.447895
 21
2.017514
 31
0.0
  0
LINE
  5
2f3
100
AcDbEntity
100
AcDbLine
  8
LINIEN
 62
     7
 10
0.451035
 20
2.027052
 30
0.0
 11
0.454234
 21
2.023854
 31
0.0
  0
LINE
  5
2f4
100
AcDbEntity
100
AcDbLine
  8
LINIEN
 62
     7
 10
0.457375
 20
2.033392
 30
0.0
 11
0.460574
 21
2.030193
 31
0.0
  0
LINE
  5
2f5
100
AcDbEntity
100
AcDbLine
  8
LINIEN
 62
     7
 10
0.463714
 20
2.039731
 30
0.0
 11
0.466913
 21
2.036533
 31
0.0
  0
LINE
  5
2f6
100
AcDbEntity
100
AcDbLine
  8
LINIEN
 62
     7
 10
0.470054
 20
2.046071
 30
0.0
 11
0.473253
 21
2.042872
 31
0.0
  0
LINE
  5
2f7
100
AcDbEntity
100
AcDbLine
  8
LINIEN
 62
     7
 10
0.476393
 20
2.05241
 30
0.0
 11
0.479592
 21
2.049211
 31
0.0
  0
LINE
  5
2f8
100
AcDbEntity
100
AcDbLine
  8
LINIEN
 62
     7
 10
0.482733
 20
2.05875
 30
0.0
 11
0.485931
 21
2.055551
 31
0.0
  0
LINE
  5
2f9
100
AcDbEntity
100
AcDbLine
  8
LINIEN
 62
     7
 10
0.489072
 20
2.065089
 30
0.0
 11
0.492271
 21
2.06189
 31
0.0
  0
LINE
  5
2fa
100
AcDbEntity
100
AcDbLine
  8
LINIEN
 62
     7
 10
0.495412
 20
2.071429
 30
0.0
 11
0.49861
 21
2.06823
 31
0.0
  0
LINE
  5
2fb
100
AcDbEntity
100
AcDbLine
  8
LINIEN
 62
     7
 10
0.501751
 20
2.077768
 30
0.0
 11
0.50495
 21
2.074569
 31
0.0
  0
LINE
  5
2fc
100
AcDbEntity
100
AcDbLine
  8
LINIEN
 62
     7
 10
0.508091
 20
2.084108
 30
0.0
 11
0.511289
 21
2.080909
 31
0.0
  0
LINE
  5
2fd
100
AcDbEntity
100
AcDbLine
  8
LINIEN
 62
     7
 10
0.51443
 20
2.090447
 30
0.0
 11
0.517629
 21
2.087248
 31
0.0
  0
LINE
  5
2fe
100
AcDbEntity
100
AcDbLine
  8
LINIEN
 62
     7
 10
0.52077
 20
2.096787
 30
0.0
 11
0.523968
 21
2.093588
 31
0.0
  0
LINE
  5
2ff
100
AcDbEntity
100
AcDbLine
  8
LINIEN
 62
     7
 10
0.527109
 20
2.103126
 30
0.0
 11
0.530308
 21
2.099927
 31
0.0
  0
LINE
  5
300
100
AcDbEntity
100
AcDbLine
  8
LINIEN
 62
     7
 10
0.533448
 20
2.109466
 30
0.0
 11
0.536647
 21
2.106267
 31
0.0
  0
LINE
  5
301
100
AcDbEntity
100
AcDbLine
  8
LINIEN
 62
     7
 10
0.539788
 20
2.115805
 30
0.0
 11
0.542987
 21
2.112606
 31
0.0
  0
LINE
  5
302
100
AcDbEntity
100
AcDbLine
  8
LINIEN
 62
     7
 10
0.546127
 20
2.122144
 30
0.0
 11
0.549326
 21
2.118946
 31
0.0
  0
LINE
  5
303
100
AcDbEntity
100
AcDbLine
  8
LINIEN
 62
     7
 10
0.552467
 20
2.128484
 30
0.0
 11
0.555666
 21
2.125285
 31
0.0
  0
LINE
  5
304
100
AcDbEntity
100
AcDbLine
  8
LINIEN
 62
     7
 10
0.558806
 20
2.134823
 30
0.0
 11
0.562005
 21
2.131625
 31
0.0
  0
LINE
  5
305
100
AcDbEntity
100
AcDbLine
  8
LINIEN
 62
     7
 10
0.565146
 20
2.141163
 30
0.0
 11
0.568345
 21
2.137964
 31
0.0
  0
LINE
  5
306
100
AcDbEntity
100
AcDbLine
  8
LINIEN
 62
     7
 10
0.571485
 20
2.147502
 30
0.0
 11
0.574684
 21
2.144304
 31
0.0
  0
LINE
  5
307
100
AcDbEntity
100
AcDbLine
  8
LINIEN
 62
     7
 10
0.577825
 20
2.153842
 30
0.0
 11
0.581024
 21
2.150643
 31
0.0
  0
LINE
  5
308
100
AcDbEntity
100
AcDbLine
  8
LINIEN
 62
     7
 10
0.584164
 20
2.160181
 30
0.0
 11
0.587363
 21
2.156982
 31
0.0
  0
LINE
  5
309
100
AcDbEntity
100
AcDbLine
  8
LINIEN
 62
     7
 10
0.590504
 20
2.166521
 30
0.0
 11
0.593703
 21
2.163322
 31
0.0
  0
LINE
  5
30a
100
AcDbEntity
100
AcDbLine
  8
LINIEN
 62
     7
 10
0.596843
 20
2.17286
 30
0.0
 11
0.600042
 21
2.169661
 31
0.0
  0
LINE
  5
30b
100
AcDbEntity
100
AcDbLine
  8
LINIEN
 62
     7
 10
0.603183
 20
2.1792
 30
0.0
 11
0.606381
 21
2.176001
 31
0.0
  0
LINE
  5
30c
100
AcDbEntity
100
AcDbLine
  8
LINIEN
 62
     7
 10
0.609522
 20
2.185539
 30
0.0
 11
0.612721
 21
2.18234
 31
0.0
  0
LINE
  5
30d
100
AcDbEntity
100
AcDbLine
  8
LINIEN
 62
     7
 10
0.615862
 20
2.191879
 30
0.0
 11
0.61906
 21
2.18868
 31
0.0
  0
LINE
  5
30e
100
AcDbEntity
100
AcDbLine
  8
LINIEN
 62
     7
 10
0.622201
 20
2.198218
 30
0.0
 11
0.6254
 21
2.195019
 31
0.0
  0
LINE
  5
30f
100
AcDbEntity
100
AcDbLine
  8
LINIEN
 62
     7
 10
0.628541
 20
2.204558
 30
0.0
 11
0.631739
 21
2.201359
 31
0.0
  0
LINE
  5
310
100
AcDbEntity
100
AcDbLine
  8
LINIEN
 62
     7
 10
0.63488
 20
2.210897
 30
0.0
 11
0.638079
 21
2.207698
 31
0.0
  0
LINE
  5
311
100
AcDbEntity
100
AcDbLine
  8
LINIEN
 62
     7
 10
0.64122
 20
2.217237
 30
0.0
 11
0.644418
 21
2.214038
 31
0.0
  0
LINE
  5
312
100
AcDbEntity
100
AcDbLine
  8
LINIEN
 62
     7
 10
0.64122
 20
2.217237
 30
0.0
 11
0.644418
 21
2.214038
 31
0.0
  0
LINE
  5
313
100
AcDbEntity
100
AcDbLine
  8
LINIEN
 62
     7
 10
0.647559
 20
2.223576
 30
0.0
 11
0.650758
 21
2.220377
 31
0.0
  0
LINE
  5
314
100
AcDbEntity
100
AcDbLine
  8
LINIEN
 62
     7
 10
0.653898
 20
2.229915
 30
0.0
 11
0.657097
 21
2.226717
 31
0.0
  0
LINE
  5
315
100
AcDbEntity
100
AcDbLine
  8
LINIEN
 62
     7
 10
0.660238
 20
2.236255
 30
0.0
 11
0.663437
 21
2.233056
 31
0.0
  0
LINE
  5
316
100
AcDbEntity
100
AcDbLine
  8
LINIEN
 62
     7
 10
0.666577
 20
2.242594
 30
0.0
 11
0.669776
 21
2.239396
 31
0.0
  0
LINE
  5
317
100
AcDbEntity
100
AcDbLine
  8
LINIEN
 62
     7
 10
0.672917
 20
2.248934
 30
0.0
 11
0.676116
 21
2.245735
 31
0.0
  0
LINE
  5
318
100
AcDbEntity
100
AcDbLine
  8
LINIEN
 62
     7
 10
0.679256
 20
2.255273
 30
0.0
 11
0.682455
 21
2.252075
 31
0.0
  0
LINE
  5
319
100
AcDbEntity
100
AcDbLine
  8
LINIEN
 62
     7
 10
0.685596
 20
2.261613
 30
0.0
 11
0.688795
 21
2.258414
 31
0.0
  0
LINE
  5
31a
100
AcDbEntity
100
AcDbLine
  8
LINIEN
 62
     7
 10
0.691935
 20
2.267952
 30
0.0
 11
0.695134
 21
2.264754
 31
0.0
  0
LINE
  5
31b
100
AcDbEntity
100
AcDbLine
  8
LINIEN
 62
     7
 10
0.698275
 20
2.274292
 30
0.0
 11
0.701474
 21
2.271093
 31
0.0
  0
LINE
  5
31c
100
AcDbEntity
100
AcDbLine
  8
LINIEN
 62
     7
 10
0.704614
 20
2.280631
 30
0.0
 11
0.707813
 21
2.277432
 31
0.0
  0
LINE
  5
31d
100
AcDbEntity
100
AcDbLine
  8
LINIEN
 62
     7
 10
0.710954
 20
2.286971
 30
0.0
 11
0.714152
 21
2.283772
 31
0.0
  0
LINE
  5
31e
100
AcDbEntity
100
AcDbLine
  8
LINIEN
 62
     7
 10
0.717293
 20
2.29331
 30
0.0
 11
0.720492
 21
2.290111
 31
0.0
  0
LINE
  5
31f
100
AcDbEntity
100
AcDbLine
  8
LINIEN
 62
     7
 10
0.723633
 20
2.29965
 30
0.0
 11
0.726831
 21
2.296451
 31
0.0
  0
LINE
  5
320
100
AcDbEntity
100
AcDbLine
  8
LINIEN
 62
     7
 10
0.729972
 20
2.305989
 30
0.0
 11
0.733171
 21
2.30279
 31
0.0
  0
LINE
  5
321
100
AcDbEntity
100
AcDbLine
  8
LINIEN
 62
     7
 10
0.736312
 20
2.312329
 30
0.0
 11
0.73951
 21
2.30913
 31
0.0
  0
LINE
  5
322
100
AcDbEntity
100
AcDbLine
  8
LINIEN
 62
     7
 10
0.742651
 20
2.318668
 30
0.0
 11
0.74585
 21
2.315469
 31
0.0
  0
LINE
  5
323
100
AcDbEntity
100
AcDbLine
  8
LINIEN
 62
     7
 10
0.748991
 20
2.325008
 30
0.0
 11
0.752189
 21
2.321809
 31
0.0
  0
LINE
  5
324
100
AcDbEntity
100
AcDbLine
  8
LINIEN
 62
     7
 10
0.75533
 20
2.331347
 30
0.0
 11
0.758529
 21
2.328148
 31
0.0
  0
LINE
  5
325
100
AcDbEntity
100
AcDbLine
  8
LINIEN
 62
     7
 10
0.761669
 20
2.337687
 30
0.0
 11
0.764868
 21
2.334488
 31
0.0
  0
LINE
  5
326
100
AcDbEntity
100
AcDbLine
  8
LINIEN
 62
     7
 10
0.768009
 20
2.344026
 30
0.0
 11
0.771208
 21
2.340827
 31
0.0
  0
LINE
  5
327
100
AcDbEntity
100
AcDbLine
  8
LINIEN
 62
     7
 10
0.774348
 20
2.350365
 30
0.0
 11
0.777547
 21
2.347167
 31
0.0
  0
LINE
  5
328
100
AcDbEntity
100
AcDbLine
  8
LINIEN
 62
     7
 10
0.780688
 20
2.356705
 30
0.0
 11
0.783887
 21
2.353506
 31
0.0
  0
LINE
  5
329
100
AcDbEntity
100
AcDbLine
  8
LINIEN
 62
     7
 10
0.787027
 20
2.363044
 30
0.0
 11
0.790226
 21
2.359846
 31
0.0
  0
LINE
  5
32a
100
AcDbEntity
100
AcDbLine
  8
LINIEN
 62
     7
 10
0.793367
 20
2.369384
 30
0.0
 11
0.796566
 21
2.366185
 31
0.0
  0
LINE
  5
32b
100
AcDbEntity
100
AcDbLine
  8
LINIEN
 62
     7
 10
0.799706
 20
2.375723
 30
0.0
 11
0.802905
 21
2.372525
 31
0.0
  0
LINE
  5
32c
100
AcDbEntity
100
AcDbLine
  8
LINIEN
 62
     7
 10
0.806046
 20
2.382063
 30
0.0
 11
0.809245
 21
2.378864
 31
0.0
  0
LINE
  5
32d
100
AcDbEntity
100
AcDbLine
  8
LINIEN
 62
     7
 10
0.812385
 20
2.388402
 30
0.0
 11
0.815584
 21
2.385204
 31
0.0
  0
LINE
  5
32e
100
AcDbEntity
100
AcDbLine
  8
LINIEN
 62
     7
 10
0.818725
 20
2.394742
 30
0.0
 11
0.821924
 21
2.391543
 31
0.0
  0
LINE
  5
32f
100
AcDbEntity
100
AcDbLine
  8
LINIEN
 62
     7
 10
0.825064
 20
2.401081
 30
0.0
 11
0.828263
 21
2.397882
 31
0.0
  0
LINE
  5
330
100
AcDbEntity
100
AcDbLine
  8
LINIEN
 62
     7
 10
0.831404
 20
2.407421
 30
0.0
 11
0.834602
 21
2.404222
 31
0.0
  0
LINE
  5
331
100
AcDbEntity
100
AcDbLine
  8
LINIEN
 62
     7
 10
0.837743
 20
2.41376
 30
0.0
 11
0.840942
 21
2.410561
 31
0.0
  0
LINE
  5
332
100
AcDbEntity
100
AcDbLine
  8
LINIEN
 62
     7
 10
0.844083
 20
2.4201
 30
0.0
 11
0.847281
 21
2.416901
 31
0.0
  0
LINE
  5
333
100
AcDbEntity
100
AcDbLine
  8
LINIEN
 62
     7
 10
0.850422
 20
2.426439
 30
0.0
 11
0.853621
 21
2.42324
 31
0.0
  0
LINE
  5
334
100
AcDbEntity
100
AcDbLine
  8
LINIEN
 62
     7
 10
0.856762
 20
2.432779
 30
0.0
 11
0.85996
 21
2.42958
 31
0.0
  0
LINE
  5
335
100
AcDbEntity
100
AcDbLine
  8
LINIEN
 62
     7
 10
0.863101
 20
2.439118
 30
0.0
 11
0.8663
 21
2.435919
 31
0.0
  0
LINE
  5
336
100
AcDbEntity
100
AcDbLine
  8
LINIEN
 62
     7
 10
0.869441
 20
2.445458
 30
0.0
 11
0.872639
 21
2.442259
 31
0.0
  0
LINE
  5
337
100
AcDbEntity
100
AcDbLine
  8
LINIEN
 62
     7
 10
0.87578
 20
2.451797
 30
0.0
 11
0.878979
 21
2.448598
 31
0.0
  0
LINE
  5
338
100
AcDbEntity
100
AcDbLine
  8
LINIEN
 62
     7
 10
0.882119
 20
2.458137
 30
0.0
 11
0.885318
 21
2.454938
 31
0.0
  0
LINE
  5
339
100
AcDbEntity
100
AcDbLine
  8
LINIEN
 62
     7
 10
0.888459
 20
2.464476
 30
0.0
 11
0.891658
 21
2.461277
 31
0.0
  0
LINE
  5
33a
100
AcDbEntity
100
AcDbLine
  8
LINIEN
 62
     7
 10
0.894798
 20
2.470815
 30
0.0
 11
0.897997
 21
2.467617
 31
0.0
  0
LINE
  5
33b
100
AcDbEntity
100
AcDbLine
  8
LINIEN
 62
     7
 10
0.901138
 20
2.477155
 30
0.0
 11
0.904337
 21
2.473956
 31
0.0
  0
LINE
  5
33c
100
AcDbEntity
100
AcDbLine
  8
LINIEN
 62
     7
 10
0.907477
 20
2.483494
 30
0.0
 11
0.910676
 21
2.480296
 31
0.0
  0
LINE
  5
33d
100
AcDbEntity
100
AcDbLine
  8
LINIEN
 62
     7
 10
0.913817
 20
2.489834
 30
0.0
 11
0.917016
 21
2.486635
 31
0.0
  0
LINE
  5
33e
100
AcDbEntity
100
AcDbLine
  8
LINIEN
 62
     7
 10
0.920156
 20
2.496173
 30
0.0
 11
0.923355
 21
2.492975
 31
0.0
  0
LINE
  5
33f
100
AcDbEntity
100
AcDbLine
  8
LINIEN
 62
     7
 10
0.926496
 20
2.502513
 30
0.0
 11
0.929695
 21
2.499314
 31
0.0
  0
LINE
  5
340
100
AcDbEntity
100
AcDbLine
  8
LINIEN
 62
     7
 10
0.932835
 20
2.508852
 30
0.0
 11
0.936034
 21
2.505653
 31
0.0
  0
LINE
  5
341
100
AcDbEntity
100
AcDbLine
  8
LINIEN
 62
     7
 10
0.939175
 20
2.515192
 30
0.0
 11
0.942374
 21
2.511993
 31
0.0
  0
LINE
  5
342
100
AcDbEntity
100
AcDbLine
  8
LINIEN
 62
     7
 10
0.945514
 20
2.521531
 30
0.0
 11
0.948713
 21
2.518332
 31
0.0
  0
LINE
  5
343
100
AcDbEntity
100
AcDbLine
  8
LINIEN
 62
     7
 10
0.951854
 20
2.527871
 30
0.0
 11
0.955052
 21
2.524672
 31
0.0
  0
LINE
  5
344
100
AcDbEntity
100
AcDbLine
  8
LINIEN
 62
     7
 10
0.958193
 20
2.53421
 30
0.0
 11
0.961392
 21
2.531011
 31
0.0
  0
LINE
  5
345
100
AcDbEntity
100
AcDbLine
  8
LINIEN
 62
     7
 10
0.964533
 20
2.54055
 30
0.0
 11
0.967731
 21
2.537351
 31
0.0
  0
LINE
  5
346
100
AcDbEntity
100
AcDbLine
  8
LINIEN
 62
     7
 10
0.970872
 20
2.546889
 30
0.0
 11
0.974071
 21
2.54369
 31
0.0
  0
LINE
  5
347
100
AcDbEntity
100
AcDbLine
  8
LINIEN
 62
     7
 10
0.977212
 20
2.553229
 30
0.0
 11
0.98041
 21
2.55003
 31
0.0
  0
LINE
  5
348
100
AcDbEntity
100
AcDbLine
  8
LINIEN
 62
     7
 10
0.983551
 20
2.559568
 30
0.0
 11
0.98675
 21
2.556369
 31
0.0
  0
LINE
  5
349
100
AcDbEntity
100
AcDbLine
  8
LINIEN
 62
     7
 10
0.989891
 20
2.565908
 30
0.0
 11
0.993089
 21
2.562709
 31
0.0
  0
LINE
  5
34a
100
AcDbEntity
100
AcDbLine
  8
LINIEN
 62
     7
 10
0.99623
 20
2.572247
 30
0.0
 11
0.999429
 21
2.569048
 31
0.0
  0
LINE
  5
34b
100
AcDbEntity
100
AcDbLine
  8
LINIEN
 62
     7
 10
1.002569
 20
2.578586
 30
0.0
 11
1.005768
 21
2.575388
 31
0.0
  0
LINE
  5
34c
100
AcDbEntity
100
AcDbLine
  8
LINIEN
 62
     7
 10
1.008909
 20
2.584926
 30
0.0
 11
1.012108
 21
2.581727
 31
0.0
  0
LINE
  5
34d
100
AcDbEntity
100
AcDbLine
  8
LINIEN
 62
     7
 10
1.015248
 20
2.591265
 30
0.0
 11
1.018447
 21
2.588067
 31
0.0
  0
LINE
  5
34e
100
AcDbEntity
100
AcDbLine
  8
LINIEN
 62
     7
 10
1.021588
 20
2.597605
 30
0.0
 11
1.024787
 21
2.594406
 31
0.0
  0
LINE
  5
34f
100
AcDbEntity
100
AcDbLine
  8
LINIEN
 62
     7
 10
1.027927
 20
2.603944
 30
0.0
 11
1.031126
 21
2.600746
 31
0.0
  0
LINE
  5
350
100
AcDbEntity
100
AcDbLine
  8
LINIEN
 62
     7
 10
1.034267
 20
2.610284
 30
0.0
 11
1.037466
 21
2.607085
 31
0.0
  0
LINE
  5
351
100
AcDbEntity
100
AcDbLine
  8
LINIEN
 62
     7
 10
1.040606
 20
2.616623
 30
0.0
 11
1.043805
 21
2.613425
 31
0.0
  0
LINE
  5
352
100
AcDbEntity
100
AcDbLine
  8
LINIEN
 62
     7
 10
1.046946
 20
2.622963
 30
0.0
 11
1.050145
 21
2.619764
 31
0.0
  0
LINE
  5
353
100
AcDbEntity
100
AcDbLine
  8
LINIEN
 62
     7
 10
1.053285
 20
2.629302
 30
0.0
 11
1.056484
 21
2.626103
 31
0.0
  0
LINE
  5
354
100
AcDbEntity
100
AcDbLine
  8
LINIEN
 62
     7
 10
1.059625
 20
2.635642
 30
0.0
 11
1.062824
 21
2.632443
 31
0.0
  0
LINE
  5
355
100
AcDbEntity
100
AcDbLine
  8
LINIEN
 62
     7
 10
1.065964
 20
2.641981
 30
0.0
 11
1.069163
 21
2.638782
 31
0.0
  0
LINE
  5
356
100
AcDbEntity
100
AcDbLine
  8
LINIEN
 62
     7
 10
1.072304
 20
2.648321
 30
0.0
 11
1.075502
 21
2.645122
 31
0.0
  0
LINE
  5
357
100
AcDbEntity
100
AcDbLine
  8
LINIEN
 62
     7
 10
1.078643
 20
2.65466
 30
0.0
 11
1.081842
 21
2.651461
 31
0.0
  0
LINE
  5
358
100
AcDbEntity
100
AcDbLine
  8
LINIEN
 62
     7
 10
0.593935
 20
2.254805
 30
0.0
 11
0.565672
 21
2.283067
 31
0.0
  0
LINE
  5
359
100
AcDbEntity
100
AcDbLine
  8
LINIEN
 62
     7
 10
0.565672
 20
2.283067
 30
0.0
 11
0.521792
 21
2.239187
 31
0.0
  0
LINE
  5
35a
100
AcDbEntity
100
AcDbLine
  8
LINIEN
 62
     7
 10
0.521792
 20
2.239187
 30
0.0
 11
0.550055
 21
2.210925
 31
0.0
  0
LINE
  5
35b
100
AcDbEntity
100
AcDbLine
  8
LINIEN
 62
     7
 10
0.897357
 20
2.558227
 30
0.0
 11
0.869095
 21
2.58649
 31
0.0
  0
LINE
  5
35c
100
AcDbEntity
100
AcDbLine
  8
LINIEN
 62
     7
 10
0.869095
 20
2.58649
 30
0.0
 11
0.825215
 21
2.54261
 31
0.0
  0
LINE
  5
35d
100
AcDbEntity
100
AcDbLine
  8
LINIEN
 62
     7
 10
0.825215
 20
2.54261
 30
0.0
 11
0.853477
 21
2.514347
 31
0.0
  0
LINE
  5
35e
100
AcDbEntity
100
AcDbLine
  8
LINIEN
 62
     7
 10
1.10259
 20
2.67221
 30
0.0
 11
1.029924
 21
2.599543
 31
0.0
  0
LINE
  5
35f
100
AcDbEntity
100
AcDbLine
  8
LINIEN
 62
     7
 10
0.413229
 20
1.982849
 30
0.0
 11
0.324369
 21
1.893988
 31
0.0
  0
LINE
  5
360
100
AcDbEntity
100
AcDbLine
  8
LINIEN
 62
     7
 10
0.324369
 20
1.900386
 30
0.0
 11
1.095579
 21
2.671596
 31
0.0
  0
LINE
  5
361
100
AcDbEntity
100
AcDbLine
  8
LINIEN
 62
     7
 10
0.324369
 20
1.985239
 30
0.0
 11
1.002591
 21
2.663461
 31
0.0
  0
LINE
  5
362
100
AcDbEntity
100
AcDbLine
  8
LINIEN
 62
     7
 10
0.523961
 20
1.023249
 30
0.0
 11
0.523961
 21
2.058225
 31
0.0
  0
LINE
  5
363
100
AcDbEntity
100
AcDbLine
  8
LINIEN
 62
     7
 10
0.324369
 20
1.858633
 30
0.0
 11
1.141335
 21
2.6756
 31
0.0
  0
LINE
  5
364
100
AcDbEntity
100
AcDbLine
  8
LINIEN
 62
     7
 10
0.709971
 20
2.244235
 30
0.0
 11
0.709971
 21
2.124235
 31
0.0
  0
LINE
  5
365
100
AcDbEntity
100
AcDbLine
  8
LINIEN
 62
     7
 10
0.735961
 20
2.10458
 30
0.0
 11
0.72744
 21
2.125489
 31
0.0
  0
LINE
  5
366
100
AcDbEntity
100
AcDbLine
  8
LINIEN
 62
     7
 10
0.709971
 20
2.124235
 30
0.0
 11
0.735961
 21
2.124235
 31
0.0
  0
LINE
  5
367
100
AcDbEntity
100
AcDbLine
  8
LINIEN
 62
     7
 10
0.735961
 20
2.025957
 30
0.0
 11
0.523961
 21
2.025957
 31
0.0
  0
LINE
  5
368
100
AcDbEntity
100
AcDbLine
  8
LINIEN
 62
     7
 10
0.735961
 20
2.033375
 30
0.0
 11
0.523961
 21
2.033375
 31
0.0
  0
LINE
  5
369
100
AcDbEntity
100
AcDbLine
  8
LINIEN
 62
     7
 10
1.916162
 20
1.984235
 30
0.0
 11
1.205961
 21
1.984235
 31
0.0
  0
LINE
  5
36a
100
AcDbEntity
100
AcDbLine
  8
LINIEN
 62
     7
 10
1.207961
 20
1.986235
 30
0.0
 11
1.916162
 21
1.986235
 31
0.0
  0
LINE
  5
36b
100
AcDbEntity
100
AcDbLine
  8
LINIEN
 62
     7
 10
1.916162
 20
2.046235
 30
0.0
 11
1.205961
 21
2.046235
 31
0.0
  0
LINE
  5
36c
100
AcDbEntity
100
AcDbLine
  8
LINIEN
 62
     7
 10
0.735961
 20
1.449235
 30
0.0
 11
0.775961
 21
1.449235
 31
0.0
  0
LINE
  5
36d
100
AcDbEntity
100
AcDbLine
  8
LINIEN
 62
     7
 10
0.735961
 20
1.233742
 30
0.0
 11
0.986027
 21
1.233742
 31
0.0
  0
LINE
  5
36e
100
AcDbEntity
100
AcDbLine
  8
LINIEN
 62
     7
 10
0.735961
 20
1.033742
 30
0.0
 11
0.985961
 21
1.033742
 31
0.0
  0
LINE
  5
36f
100
AcDbEntity
100
AcDbLine
  8
LINIEN
 62
     7
 10
0.735961
 20
1.449235
 30
0.0
 11
1.916162
 21
1.449235
 31
0.0
  0
LINE
  5
370
100
AcDbEntity
100
AcDbLine
  8
LINIEN
 62
     7
 10
0.98522
 20
1.449235
 30
0.0
 11
0.945961
 21
1.449235
 31
0.0
  0
LINE
  5
371
100
AcDbEntity
100
AcDbLine
  8
LINIEN
 62
     7
 10
0.985961
 20
1.434235
 30
0.0
 11
1.916161
 21
1.434235
 31
0.0
  0
LINE
  5
372
100
AcDbEntity
100
AcDbLine
  8
LINIEN
 62
     7
 10
0.941536
 20
1.629235
 30
0.0
 11
0.941536
 21
1.614235
 31
0.0
  0
LINE
  5
373
100
AcDbEntity
100
AcDbLine
  8
LINIEN
 62
     7
 10
1.461536
 20
1.629235
 30
0.0
 11
1.461536
 21
1.614235
 31
0.0
  0
LINE
  5
374
100
AcDbEntity
100
AcDbLine
  8
LINIEN
 62
     7
 10
1.481536
 20
1.449235
 30
0.0
 11
1.481536
 21
1.489235
 31
0.0
  0
LINE
  5
375
100
AcDbEntity
100
AcDbLine
  8
LINIEN
 62
     7
 10
0.921536
 20
1.449235
 30
0.0
 11
0.921536
 21
1.489235
 31
0.0
  0
LINE
  5
376
100
AcDbEntity
100
AcDbLine
  8
LINIEN
 62
     7
 10
0.921536
 20
1.489235
 30
0.0
 11
0.901536
 21
1.489235
 31
0.0
  0
LINE
  5
377
100
AcDbEntity
100
AcDbLine
  8
LINIEN
 62
     7
 10
0.901536
 20
1.489235
 30
0.0
 11
0.901536
 21
1.504235
 31
0.0
  0
LINE
  5
378
100
AcDbEntity
100
AcDbLine
  8
LINIEN
 62
     7
 10
1.481536
 20
1.489235
 30
0.0
 11
1.501536
 21
1.489235
 31
0.0
  0
LINE
  5
379
100
AcDbEntity
100
AcDbLine
  8
LINIEN
 62
     7
 10
1.501536
 20
1.489235
 30
0.0
 11
1.501536
 21
1.504235
 31
0.0
  0
LINE
  5
37a
100
AcDbEntity
100
AcDbLine
  8
LINIEN
 62
     7
 10
1.43034
 20
1.595248
 30
0.0
 11
1.458003
 21
1.539894
 31
0.0
  0
LINE
  5
37b
100
AcDbEntity
100
AcDbLine
  8
LINIEN
 62
     7
 10
1.501536
 20
1.504235
 30
0.0
 11
1.448733
 21
1.609894
 31
0.0
  0
LINE
  5
37c
100
AcDbEntity
100
AcDbLine
  8
LINIEN
 62
     7
 10
1.451416
 20
1.614235
 30
0.0
 11
1.461536
 21
1.614235
 31
0.0
  0
LINE
  5
37d
100
AcDbEntity
100
AcDbLine
  8
LINIEN
 62
     7
 10
1.417859
 20
1.472235
 30
0.0
 11
1.311407
 21
1.472235
 31
0.0
  0
LINE
  5
37e
100
AcDbEntity
100
AcDbLine
  8
LINIEN
 62
     7
 10
1.303407
 20
1.480235
 30
0.0
 11
1.303407
 21
1.598308
 31
0.0
  0
LINE
  5
37f
100
AcDbEntity
100
AcDbLine
  8
LINIEN
 62
     7
 10
1.311407
 20
1.606308
 30
0.0
 11
1.412449
 21
1.606308
 31
0.0
  0
LINE
  5
380
100
AcDbEntity
100
AcDbLine
  8
LINIEN
 62
     7
 10
1.201536
 20
1.606308
 30
0.0
 11
1.277407
 21
1.606308
 31
0.0
  0
LINE
  5
381
100
AcDbEntity
100
AcDbLine
  8
LINIEN
 62
     7
 10
1.285407
 20
1.598308
 30
0.0
 11
1.285407
 21
1.480235
 31
0.0
  0
LINE
  5
382
100
AcDbEntity
100
AcDbLine
  8
LINIEN
 62
     7
 10
1.277407
 20
1.472235
 30
0.0
 11
1.201536
 21
1.472235
 31
0.0
  0
LINE
  5
383
100
AcDbEntity
100
AcDbLine
  8
LINIEN
 62
     7
 10
1.481536
 20
1.489235
 30
0.0
 11
1.590646
 21
1.489235
 31
0.0
  0
LINE
  5
384
100
AcDbEntity
100
AcDbLine
  8
LINIEN
 62
     7
 10
1.590646
 20
1.489235
 30
0.0
 11
1.590646
 21
1.449235
 31
0.0
  0
LINE
  5
385
100
AcDbEntity
100
AcDbLine
  8
LINIEN
 62
     7
 10
1.481536
 20
1.449235
 30
0.0
 11
1.481536
 21
1.489235
 31
0.0
  0
LINE
  5
386
100
AcDbEntity
100
AcDbLine
  8
LINIEN
 62
     7
 10
1.610646
 20
1.629235
 30
0.0
 11
1.610646
 21
1.614235
 31
0.0
  0
LINE
  5
387
100
AcDbEntity
100
AcDbLine
  8
LINIEN
 62
     7
 10
0.972733
 20
1.595248
 30
0.0
 11
0.945069
 21
1.539894
 31
0.0
  0
LINE
  5
388
100
AcDbEntity
100
AcDbLine
  8
LINIEN
 62
     7
 10
0.901536
 20
1.504235
 30
0.0
 11
0.95434
 21
1.609894
 31
0.0
  0
LINE
  5
389
100
AcDbEntity
100
AcDbLine
  8
LINIEN
 62
     7
 10
0.951657
 20
1.614235
 30
0.0
 11
0.941536
 21
1.614235
 31
0.0
  0
LINE
  5
38a
100
AcDbEntity
100
AcDbLine
  8
LINIEN
 62
     7
 10
1.590646
 20
1.449235
 30
0.0
 11
1.590646
 21
1.489235
 31
0.0
  0
LINE
  5
38b
100
AcDbEntity
100
AcDbLine
  8
LINIEN
 62
     7
 10
1.590646
 20
1.489235
 30
0.0
 11
1.570646
 21
1.489235
 31
0.0
  0
LINE
  5
38c
100
AcDbEntity
100
AcDbLine
  8
LINIEN
 62
     7
 10
1.570646
 20
1.489235
 30
0.0
 11
1.570646
 21
1.504235
 31
0.0
  0
LINE
  5
38d
100
AcDbEntity
100
AcDbLine
  8
LINIEN
 62
     7
 10
1.641843
 20
1.595248
 30
0.0
 11
1.614179
 21
1.539894
 31
0.0
  0
LINE
  5
38e
100
AcDbEntity
100
AcDbLine
  8
LINIEN
 62
     7
 10
1.570646
 20
1.504235
 30
0.0
 11
1.62345
 21
1.609894
 31
0.0
  0
LINE
  5
38f
100
AcDbEntity
100
AcDbLine
  8
LINIEN
 62
     7
 10
1.620766
 20
1.614235
 30
0.0
 11
1.610646
 21
1.614235
 31
0.0
  0
LINE
  5
390
100
AcDbEntity
100
AcDbLine
  8
LINIEN
 62
     7
 10
1.654324
 20
1.472235
 30
0.0
 11
1.760775
 21
1.472235
 31
0.0
  0
LINE
  5
391
100
AcDbEntity
100
AcDbLine
  8
LINIEN
 62
     7
 10
1.768775
 20
1.480235
 30
0.0
 11
1.768775
 21
1.598308
 31
0.0
  0
LINE
  5
392
100
AcDbEntity
100
AcDbLine
  8
LINIEN
 62
     7
 10
1.760775
 20
1.606308
 30
0.0
 11
1.659733
 21
1.606308
 31
0.0
  0
LINE
  5
393
100
AcDbEntity
100
AcDbLine
  8
LINIEN
 62
     7
 10
0.985214
 20
1.472235
 30
0.0
 11
1.091666
 21
1.472235
 31
0.0
  0
LINE
  5
394
100
AcDbEntity
100
AcDbLine
  8
LINIEN
 62
     7
 10
1.099666
 20
1.480235
 30
0.0
 11
1.099666
 21
1.598308
 31
0.0
  0
LINE
  5
395
100
AcDbEntity
100
AcDbLine
  8
LINIEN
 62
     7
 10
1.091666
 20
1.606308
 30
0.0
 11
0.990623
 21
1.606308
 31
0.0
  0
LINE
  5
396
100
AcDbEntity
100
AcDbLine
  8
LINIEN
 62
     7
 10
1.201536
 20
1.606308
 30
0.0
 11
1.125666
 21
1.606308
 31
0.0
  0
LINE
  5
397
100
AcDbEntity
100
AcDbLine
  8
LINIEN
 62
     7
 10
1.117666
 20
1.598308
 30
0.0
 11
1.117666
 21
1.480235
 31
0.0
  0
LINE
  5
398
100
AcDbEntity
100
AcDbLine
  8
LINIEN
 62
     7
 10
1.125666
 20
1.472235
 30
0.0
 11
1.201536
 21
1.472235
 31
0.0
  0
LINE
  5
399
100
AcDbEntity
100
AcDbLine
  8
LINIEN
 62
     7
 10
1.786775
 20
1.598308
 30
0.0
 11
1.786775
 21
1.480235
 31
0.0
  0
LINE
  5
39a
100
AcDbEntity
100
AcDbLine
  8
LINIEN
 62
     7
 10
1.590646
 20
1.489235
 30
0.0
 11
1.481536
 21
1.489235
 31
0.0
  0
LINE
  5
39b
100
AcDbEntity
100
AcDbLine
  8
LINIEN
 62
     7
 10
1.590646
 20
1.449235
 30
0.0
 11
1.590646
 21
1.489235
 31
0.0
  0
LINE
  5
39c
100
AcDbEntity
100
AcDbLine
  8
LINIEN
  6
STRICHLINIE
 62
     7
 10
1.56967
 20
1.474287
 30
0.0
 11
1.541038
 21
1.61284
 31
0.0
  0
LINE
  5
39d
100
AcDbEntity
100
AcDbLine
  8
LINIEN
  6
STRICHLINIE
 62
     7
 10
1.502512
 20
1.474287
 30
0.0
 11
1.531144
 21
1.61284
 31
0.0
  0
LINE
  5
39e
100
AcDbEntity
100
AcDbLine
  8
LINIEN
 62
     7
 10
0.941536
 20
1.629235
 30
0.0
 11
1.461536
 21
1.629235
 31
0.0
  0
LINE
  5
39f
100
AcDbEntity
100
AcDbLine
  8
LINIEN
 62
     7
 10
1.916161
 20
1.606308
 30
0.0
 11
1.794775
 21
1.606308
 31
0.0
  0
LINE
  5
3a0
100
AcDbEntity
100
AcDbLine
  8
LINIEN
 62
     7
 10
1.794775
 20
1.472235
 30
0.0
 11
1.916161
 21
1.472235
 31
0.0
  0
LINE
  5
3a1
100
AcDbEntity
100
AcDbLine
  8
LINIEN
 62
     7
 10
1.610646
 20
1.629235
 30
0.0
 11
1.916161
 21
1.629235
 31
0.0
  0
LINE
  5
3a2
100
AcDbEntity
100
AcDbLine
  8
LINIEN
 62
     7
 10
1.207961
 20
1.986235
 30
0.0
 11
1.207961
 21
2.046235
 31
0.0
  0
LINE
  5
3a3
100
AcDbEntity
100
AcDbLine
  8
LINIEN
 62
     7
 10
0.945961
 20
1.449235
 30
0.0
 11
0.945961
 21
1.023249
 31
0.0
  0
LINE
  5
3a4
100
AcDbEntity
100
AcDbLine
  8
LINIEN
 62
     7
 10
0.775961
 20
1.449235
 30
0.0
 11
0.775961
 21
1.023249
 31
0.0
  0
LINE
  5
3a5
100
AcDbEntity
100
AcDbLine
  8
LINIEN
 62
     7
 10
1.001092
 20
1.434235
 30
0.0
 11
1.001092
 21
1.023249
 31
0.0
  0
LINE
  5
3a6
100
AcDbEntity
100
AcDbLine
  8
LINIEN
 62
     7
 10
0.985961
 20
1.023249
 30
0.0
 11
0.985961
 21
1.449235
 31
0.0
  0
LINE
  5
3a7
100
AcDbEntity
100
AcDbLine
  8
OBJEKTE
 62
     7
 10
2.281828
 20
1.536626
 30
0.0
 11
2.281828
 21
2.568416
 31
0.0
  0
ARC
  5
3a8
100
AcDbEntity
100
AcDbArc
  8
LINIEN
  6
STRICHLINIE
 62
     7
 10
0.831663
 20
1.82459
 30
0.0
 40
0.010719
 50
180.0
 51
0.0
  0
ARC
  5
3a9
100
AcDbEntity
100
AcDbArc
  8
LINIEN
  6
STRICHLINIE
 62
     7
 10
0.83168
 20
1.82459
 30
0.0
 40
0.020702
 50
180.0
 51
0.0
  0
ARC
  5
3aa
100
AcDbEntity
100
AcDbArc
  8
OBJEKTE
 62
     7
 10
0.545584
 20
2.06482
 30
0.0
 40
0.010759
 50
343.987382
 51
228.702379
  0
ARC
  5
3ab
100
AcDbEntity
100
AcDbArc
  8
OBJEKTE
 62
     7
 10
0.561461
 20
2.043651
 30
0.0
 40
0.010759
 50
162.476501
 51
30.363655
  0
ARC
  5
3ac
100
AcDbEntity
100
AcDbArc
  8
OBJEKTE
 62
     7
 10
0.568192
 20
2.07917
 30
0.0
 40
0.016466
 50
327.340704
 51
217.903445
  0
ARC
  5
3ad
100
AcDbEntity
100
AcDbArc
  8
OBJEKTE
 62
     7
 10
0.676453
 20
2.168203
 30
0.0
 40
0.030062
 50
350.468542
 51
228.835547
  0
ARC
  5
3ae
100
AcDbEntity
100
AcDbArc
  8
OBJEKTE
 62
     7
 10
0.588403
 20
2.049906
 30
0.0
 40
0.016466
 50
146.823679
 51
42.211201
  0
ARC
  5
3af
100
AcDbEntity
100
AcDbArc
  8
OBJEKTE
 62
     7
 10
0.598652
 20
2.102196
 30
0.0
 40
0.021723
 50
338.630154
 51
219.131521
  0
ARC
  5
3b0
100
AcDbEntity
100
AcDbArc
  8
OBJEKTE
 62
     7
 10
0.541649
 20
2.042463
 30
0.0
 40
0.009088
 50
172.820113
 51
50.936549
  0
ARC
  5
3b1
100
AcDbEntity
100
AcDbArc
  8
OBJEKTE
 62
     7
 10
0.63427
 20
2.132604
 30
0.0
 40
0.025406
 50
350.658164
 51
222.071736
  0
ARC
  5
3b2
100
AcDbEntity
100
AcDbArc
  8
OBJEKTE
 62
     7
 10
0.626892
 20
2.055198
 30
0.0
 40
0.021723
 50
156.025024
 51
33.238523
  0
ARC
  5
3b3
100
AcDbEntity
100
AcDbArc
  8
OBJEKTE
 62
     7
 10
0.67356
 20
2.058566
 30
0.0
 40
0.025406
 50
170.636194
 51
29.838018
  0
ARC
  5
3b4
100
AcDbEntity
100
AcDbArc
  8
OBJEKTE
 62
     7
 10
0.729087
 20
2.063047
 30
0.0
 40
0.030062
 50
175.915884
 51
283.044346
  0
ARC
  5
3b5
100
AcDbEntity
100
AcDbArc
  8
OBJEKTE
 62
     7
 10
0.718894
 20
2.210441
 30
0.0
 40
0.030062
 50
107.266226
 51
232.894271
  0
ARC
  5
3b6
100
AcDbEntity
100
AcDbArc
  8
LINIEN
 62
     7
 10
0.985214
 20
1.517975
 30
0.0
 40
0.045739
 50
151.364683
 51
270.0
  0
ARC
  5
3b7
100
AcDbEntity
100
AcDbArc
  8
LINIEN
 62
     7
 10
0.990623
 20
1.586308
 30
0.0
 40
0.02
 50
90.0
 51
153.446063
  0
ARC
  5
3b8
100
AcDbEntity
100
AcDbArc
  8
LINIEN
 62
     7
 10
0.951657
 20
1.611235
 30
0.0
 40
0.003
 50
333.446063
 51
90.0
  0
ARC
  5
3b9
100
AcDbEntity
100
AcDbArc
  8
LINIEN
 62
     7
 10
1.091666
 20
1.480235
 30
0.0
 40
0.008
 50
270.0
 51
0.0
  0
ARC
  5
3ba
100
AcDbEntity
100
AcDbArc
  8
LINIEN
 62
     7
 10
1.091666
 20
1.598308
 30
0.0
 40
0.008
 50
0.0
 51
90.0
  0
ARC
  5
3bb
100
AcDbEntity
100
AcDbArc
  8
LINIEN
 62
     7
 10
1.125666
 20
1.598308
 30
0.0
 40
0.008
 50
90.0
 51
180.0
  0
ARC
  5
3bc
100
AcDbEntity
100
AcDbArc
  8
LINIEN
 62
     7
 10
1.125666
 20
1.480235
 30
0.0
 40
0.008
 50
180.0
 51
270.0
  0
ARC
  5
3bd
100
AcDbEntity
100
AcDbArc
  8
LINIEN
 62
     7
 10
1.417859
 20
1.517975
 30
0.0
 40
0.045739
 50
270.0
 51
28.635317
  0
ARC
  5
3be
100
AcDbEntity
100
AcDbArc
  8
LINIEN
 62
     7
 10
1.412449
 20
1.586308
 30
0.0
 40
0.02
 50
26.553937
 51
90.0
  0
ARC
  5
3bf
100
AcDbEntity
100
AcDbArc
  8
LINIEN
 62
     7
 10
1.451416
 20
1.611235
 30
0.0
 40
0.003
 50
90.0
 51
206.553937
  0
ARC
  5
3c0
100
AcDbEntity
100
AcDbArc
  8
LINIEN
 62
     7
 10
1.311407
 20
1.480235
 30
0.0
 40
0.008
 50
180.0
 51
270.0
  0
ARC
  5
3c1
100
AcDbEntity
100
AcDbArc
  8
LINIEN
 62
     7
 10
1.311407
 20
1.598308
 30
0.0
 40
0.008
 50
90.0
 51
180.0
  0
ARC
  5
3c2
100
AcDbEntity
100
AcDbArc
  8
LINIEN
 62
     7
 10
1.277407
 20
1.598308
 30
0.0
 40
0.008
 50
0.0
 51
90.0
  0
ARC
  5
3c3
100
AcDbEntity
100
AcDbArc
  8
LINIEN
 62
     7
 10
1.277407
 20
1.480235
 30
0.0
 40
0.008
 50
270.0
 51
0.0
  0
ARC
  5
3c4
100
AcDbEntity
100
AcDbArc
  8
LINIEN
 62
     7
 10
1.654324
 20
1.517975
 30
0.0
 40
0.045739
 50
151.364683
 51
270.0
  0
ARC
  5
3c5
100
AcDbEntity
100
AcDbArc
  8
LINIEN
 62
     7
 10
1.659733
 20
1.586308
 30
0.0
 40
0.02
 50
90.0
 51
153.446063
  0
ARC
  5
3c6
100
AcDbEntity
100
AcDbArc
  8
LINIEN
 62
     7
 10
1.620766
 20
1.611235
 30
0.0
 40
0.003
 50
333.446063
 51
90.0
  0
ARC
  5
3c7
100
AcDbEntity
100
AcDbArc
  8
LINIEN
 62
     7
 10
1.760775
 20
1.480235
 30
0.0
 40
0.008
 50
270.0
 51
0.0
  0
ARC
  5
3c8
100
AcDbEntity
100
AcDbArc
  8
LINIEN
 62
     7
 10
1.760775
 20
1.598308
 30
0.0
 40
0.008
 50
0.0
 51
90.0
  0
ARC
  5
3c9
100
AcDbEntity
100
AcDbArc
  8
LINIEN
 62
     7
 10
1.794775
 20
1.598308
 30
0.0
 40
0.008
 50
90.0
 51
180.0
  0
ARC
  5
3ca
100
AcDbEntity
100
AcDbArc
  8
LINIEN
 62
     7
 10
1.794775
 20
1.480235
 30
0.0
 40
0.008
 50
180.0
 51
270.0
  0
CIRCLE
  5
3cb
100
AcDbEntity
100
AcDbCircle
  8
LINIEN
  6
STRICHLINIE
 62
     7
 10
0.771364
 20
1.484891
 30
0.0
 40
0.005038
  0
CIRCLE
  5
3cc
100
AcDbEntity
100
AcDbCircle
  8
LINIEN
  6
STRICHLINIE
 62
     7
 10
0.771364
 20
1.954178
 30
0.0
 40
0.005038
  0
CIRCLE
  5
3cd
100
AcDbEntity
100
AcDbCircle
  8
LINIEN
  6
STRICHLINIE
 62
     7
 10
0.771364
 20
1.748003
 30
0.0
 40
0.005038
  0
CIRCLE
  5
3ce
100
AcDbEntity
100
AcDbCircle
  8
LINIEN
  6
STRICHLINIE
 62
     7
 10
0.877726
 20
1.484891
 30
0.0
 40
0.005038
  0
CIRCLE
  5
3cf
100
AcDbEntity
100
AcDbCircle
  8
LINIEN
  6
STRICHLINIE
 62
     7
 10
0.877726
 20
1.954178
 30
0.0
 40
0.005038
  0
CIRCLE
  5
3d0
100
AcDbEntity
100
AcDbCircle
  8
LINIEN
  6
STRICHLINIE
 62
     7
 10
1.22762
 20
2.00511
 30
0.0
 40
0.003654
  0
CIRCLE
  5
3d1
100
AcDbEntity
100
AcDbCircle
  8
LINIEN
  6
STRICHLINIE
 62
     7
 10
1.293396
 20
2.00511
 30
0.0
 40
0.003654
  0
CIRCLE
  5
3d2
100
AcDbEntity
100
AcDbCircle
  8
LINIEN
  6
STRICHLINIE
 62
     7
 10
1.359172
 20
2.00511
 30
0.0
 40
0.003654
  0
CIRCLE
  5
3d3
100
AcDbEntity
100
AcDbCircle
  8
LINIEN
  6
STRICHLINIE
 62
     7
 10
1.424948
 20
2.00511
 30
0.0
 40
0.003654
  0
CIRCLE
  5
3d4
100
AcDbEntity
100
AcDbCircle
  8
LINIEN
  6
STRICHLINIE
 62
     7
 10
1.490724
 20
2.00511
 30
0.0
 40
0.003654
  0
CIRCLE
  5
3d5
100
AcDbEntity
100
AcDbCircle
  8
LINIEN
  6
STRICHLINIE
 62
     7
 10
1.5565
 20
2.00511
 30
0.0
 40
0.003654
  0
CIRCLE
  5
3d6
100
AcDbEntity
100
AcDbCircle
  8
LINIEN
  6
STRICHLINIE
 62
     7
 10
1.622276
 20
2.00511
 30
0.0
 40
0.003654
  0
CIRCLE
  5
3d7
100
AcDbEntity
100
AcDbCircle
  8
LINIEN
  6
STRICHLINIE
 62
     7
 10
1.688052
 20
2.00511
 30
0.0
 40
0.003654
  0
CIRCLE
  5
3d8
100
AcDbEntity
100
AcDbCircle
  8
LINIEN
  6
STRICHLINIE
 62
     7
 10
1.753828
 20
2.00511
 30
0.0
 40
0.003654
  0
CIRCLE
  5
3d9
100
AcDbEntity
100
AcDbCircle
  8
LINIEN
  6
STRICHLINIE
 62
     7
 10
1.819603
 20
2.00511
 30
0.0
 40
0.003654
  0
CIRCLE
  5
3da
100
AcDbEntity
100
AcDbCircle
  8
LINIEN
  6
STRICHLINIE
 62
     7
 10
1.885379
 20
2.00511
 30
0.0
 40
0.003654
  0
CIRCLE
  5
3db
100
AcDbEntity
100
AcDbCircle
  8
STRUKTUR
 62
     7
 10
1.206961
 20
2.040198
 30
0.0
 40
0.001
  0
CIRCLE
  5
3dc
100
AcDbEntity
100
AcDbCircle
  8
LINIEN
 62
     7
 10
1.502512
 20
1.469235
 30
0.0
 40
0.005051
  0
CIRCLE
  5
3dd
100
AcDbEntity
100
AcDbCircle
  8
LINIEN
 62
     7
 10
1.56967
 20
1.469235
 30
0.0
 40
0.005051
  0
CIRCLE
  5
3de
100
AcDbEntity
100
AcDbCircle
  8
LINIEN
 62
     7
 10
1.536091
 20
1.611817
 30
0.0
 40
0.005051
  0
CIRCLE
  5
3df
100
AcDbEntity
100
AcDbCircle
  8
STRUKTUR
 62
     7
 10
1.206961
 20
2.020198
 30
0.0
 40
0.001
  0
CIRCLE
  5
3e0
100
AcDbEntity
100
AcDbCircle
  8
STRUKTUR
 62
     7
 10
1.206961
 20
2.009919
 30
0.0
 40
0.001
  0
CIRCLE
  5
3e1
100
AcDbEntity
100
AcDbCircle
  8
STRUKTUR
 62
     7
 10
1.206961
 20
1.99964
 30
0.0
 40
0.001
  0
CIRCLE
  5
3e2
100
AcDbEntity
100
AcDbCircle
  8
STRUKTUR
 62
     7
 10
1.206961
 20
1.989361
 30
0.0
 40
0.001
  0
CIRCLE
  5
3e3
100
AcDbEntity
100
AcDbCircle
  8
STRUKTUR
 62
     7
 10
1.211899
 20
1.985235
 30
0.0
 40
0.001
  0
CIRCLE
  5
3e4
100
AcDbEntity
100
AcDbCircle
  8
STRUKTUR
 62
     7
 10
1.222193
 20
1.985235
 30
0.0
 40
0.001
  0
CIRCLE
  5
3e5
100
AcDbEntity
100
AcDbCircle
  8
STRUKTUR
 62
     7
 10
1.232487
 20
1.985235
 30
0.0
 40
0.001
  0
CIRCLE
  5
3e6
100
AcDbEntity
100
AcDbCircle
  8
STRUKTUR
 62
     7
 10
1.242782
 20
1.985235
 30
0.0
 40
0.001
  0
CIRCLE
  5
3e7
100
AcDbEntity
100
AcDbCircle
  8
STRUKTUR
 62
     7
 10
1.253076
 20
1.985235
 30
0.0
 40
0.001
  0
CIRCLE
  5
3e8
100
AcDbEntity
100
AcDbCircle
  8
STRUKTUR
 62
     7
 10
1.26337
 20
1.985235
 30
0.0
 40
0.001
  0
CIRCLE
  5
3e9
100
AcDbEntity
100
AcDbCircle
  8
STRUKTUR
 62
     7
 10
1.273664
 20
1.985235
 30
0.0
 40
0.001
  0
CIRCLE
  5
3ea
100
AcDbEntity
100
AcDbCircle
  8
STRUKTUR
 62
     7
 10
1.283958
 20
1.985235
 30
0.0
 40
0.001
  0
CIRCLE
  5
3eb
100
AcDbEntity
100
AcDbCircle
  8
STRUKTUR
 62
     7
 10
1.294253
 20
1.985235
 30
0.0
 40
0.001
  0
CIRCLE
  5
3ec
100
AcDbEntity
100
AcDbCircle
  8
STRUKTUR
 62
     7
 10
1.304547
 20
1.985235
 30
0.0
 40
0.001
  0
CIRCLE
  5
3ed
100
AcDbEntity
100
AcDbCircle
  8
STRUKTUR
 62
     7
 10
1.314841
 20
1.985235
 30
0.0
 40
0.001
  0
CIRCLE
  5
3ee
100
AcDbEntity
100
AcDbCircle
  8
STRUKTUR
 62
     7
 10
1.325135
 20
1.985235
 30
0.0
 40
0.001
  0
CIRCLE
  5
3ef
100
AcDbEntity
100
AcDbCircle
  8
STRUKTUR
 62
     7
 10
1.335429
 20
1.985235
 30
0.0
 40
0.001
  0
CIRCLE
  5
3f0
100
AcDbEntity
100
AcDbCircle
  8
STRUKTUR
 62
     7
 10
1.345724
 20
1.985235
 30
0.0
 40
0.001
  0
CIRCLE
  5
3f1
100
AcDbEntity
100
AcDbCircle
  8
STRUKTUR
 62
     7
 10
1.356018
 20
1.985235
 30
0.0
 40
0.001
  0
CIRCLE
  5
3f2
100
AcDbEntity
100
AcDbCircle
  8
STRUKTUR
 62
     7
 10
1.366312
 20
1.985235
 30
0.0
 40
0.001
  0
CIRCLE
  5
3f3
100
AcDbEntity
100
AcDbCircle
  8
STRUKTUR
 62
     7
 10
1.376606
 20
1.985235
 30
0.0
 40
0.001
  0
CIRCLE
  5
3f4
100
AcDbEntity
100
AcDbCircle
  8
STRUKTUR
 62
     7
 10
1.3869
 20
1.985235
 30
0.0
 40
0.001
  0
CIRCLE
  5
3f5
100
AcDbEntity
100
AcDbCircle
  8
STRUKTUR
 62
     7
 10
1.397195
 20
1.985235
 30
0.0
 40
0.001
  0
CIRCLE
  5
3f6
100
AcDbEntity
100
AcDbCircle
  8
STRUKTUR
 62
     7
 10
1.407489
 20
1.985235
 30
0.0
 40
0.001
  0
CIRCLE
  5
3f7
100
AcDbEntity
100
AcDbCircle
  8
STRUKTUR
 62
     7
 10
1.417783
 20
1.985235
 30
0.0
 40
0.001
  0
CIRCLE
  5
3f8
100
AcDbEntity
100
AcDbCircle
  8
STRUKTUR
 62
     7
 10
1.428077
 20
1.985235
 30
0.0
 40
0.001
  0
CIRCLE
  5
3f9
100
AcDbEntity
100
AcDbCircle
  8
STRUKTUR
 62
     7
 10
1.438372
 20
1.985235
 30
0.0
 40
0.001
  0
CIRCLE
  5
3fa
100
AcDbEntity
100
AcDbCircle
  8
STRUKTUR
 62
     7
 10
1.448666
 20
1.985235
 30
0.0
 40
0.001
  0
CIRCLE
  5
3fb
100
AcDbEntity
100
AcDbCircle
  8
STRUKTUR
 62
     7
 10
1.45896
 20
1.985235
 30
0.0
 40
0.001
  0
CIRCLE
  5
3fc
100
AcDbEntity
100
AcDbCircle
  8
STRUKTUR
 62
     7
 10
1.469254
 20
1.985235
 30
0.0
 40
0.001
  0
CIRCLE
  5
3fd
100
AcDbEntity
100
AcDbCircle
  8
STRUKTUR
 62
     7
 10
1.479548
 20
1.985235
 30
0.0
 40
0.001
  0
CIRCLE
  5
3fe
100
AcDbEntity
100
AcDbCircle
  8
STRUKTUR
 62
     7
 10
1.489843
 20
1.985235
 30
0.0
 40
0.001
  0
CIRCLE
  5
3ff
100
AcDbEntity
100
AcDbCircle
  8
STRUKTUR
 62
     7
 10
1.500137
 20
1.985235
 30
0.0
 40
0.001
  0
CIRCLE
  5
400
100
AcDbEntity
100
AcDbCircle
  8
STRUKTUR
 62
     7
 10
1.510431
 20
1.985235
 30
0.0
 40
0.001
  0
CIRCLE
  5
401
100
AcDbEntity
100
AcDbCircle
  8
STRUKTUR
 62
     7
 10
1.520725
 20
1.985235
 30
0.0
 40
0.001
  0
CIRCLE
  5
402
100
AcDbEntity
100
AcDbCircle
  8
STRUKTUR
 62
     7
 10
1.531019
 20
1.985235
 30
0.0
 40
0.001
  0
CIRCLE
  5
403
100
AcDbEntity
100
AcDbCircle
  8
STRUKTUR
 62
     7
 10
1.541314
 20
1.985235
 30
0.0
 40
0.001
  0
CIRCLE
  5
404
100
AcDbEntity
100
AcDbCircle
  8
STRUKTUR
 62
     7
 10
1.551608
 20
1.985235
 30
0.0
 40
0.001
  0
CIRCLE
  5
405
100
AcDbEntity
100
AcDbCircle
  8
STRUKTUR
 62
     7
 10
1.561902
 20
1.985235
 30
0.0
 40
0.001
  0
CIRCLE
  5
406
100
AcDbEntity
100
AcDbCircle
  8
STRUKTUR
 62
     7
 10
1.572196
 20
1.985235
 30
0.0
 40
0.001
  0
CIRCLE
  5
407
100
AcDbEntity
100
AcDbCircle
  8
STRUKTUR
 62
     7
 10
1.58249
 20
1.985235
 30
0.0
 40
0.001
  0
CIRCLE
  5
408
100
AcDbEntity
100
AcDbCircle
  8
STRUKTUR
 62
     7
 10
1.592785
 20
1.985235
 30
0.0
 40
0.001
  0
CIRCLE
  5
409
100
AcDbEntity
100
AcDbCircle
  8
STRUKTUR
 62
     7
 10
1.603079
 20
1.985235
 30
0.0
 40
0.001
  0
CIRCLE
  5
40a
100
AcDbEntity
100
AcDbCircle
  8
STRUKTUR
 62
     7
 10
1.613373
 20
1.985235
 30
0.0
 40
0.001
  0
CIRCLE
  5
40b
100
AcDbEntity
100
AcDbCircle
  8
STRUKTUR
 62
     7
 10
1.623667
 20
1.985235
 30
0.0
 40
0.001
  0
CIRCLE
  5
40c
100
AcDbEntity
100
AcDbCircle
  8
STRUKTUR
 62
     7
 10
1.633962
 20
1.985235
 30
0.0
 40
0.001
  0
CIRCLE
  5
40d
100
AcDbEntity
100
AcDbCircle
  8
STRUKTUR
 62
     7
 10
1.644256
 20
1.985235
 30
0.0
 40
0.001
  0
CIRCLE
  5
40e
100
AcDbEntity
100
AcDbCircle
  8
STRUKTUR
 62
     7
 10
1.65455
 20
1.985235
 30
0.0
 40
0.001
  0
CIRCLE
  5
40f
100
AcDbEntity
100
AcDbCircle
  8
STRUKTUR
 62
     7
 10
1.664844
 20
1.985235
 30
0.0
 40
0.001
  0
CIRCLE
  5
410
100
AcDbEntity
100
AcDbCircle
  8
STRUKTUR
 62
     7
 10
1.675138
 20
1.985235
 30
0.0
 40
0.001
  0
CIRCLE
  5
411
100
AcDbEntity
100
AcDbCircle
  8
STRUKTUR
 62
     7
 10
1.685433
 20
1.985235
 30
0.0
 40
0.001
  0
CIRCLE
  5
412
100
AcDbEntity
100
AcDbCircle
  8
STRUKTUR
 62
     7
 10
1.695727
 20
1.985235
 30
0.0
 40
0.001
  0
CIRCLE
  5
413
100
AcDbEntity
100
AcDbCircle
  8
STRUKTUR
 62
     7
 10
1.706021
 20
1.985235
 30
0.0
 40
0.001
  0
CIRCLE
  5
414
100
AcDbEntity
100
AcDbCircle
  8
STRUKTUR
 62
     7
 10
1.716315
 20
1.985235
 30
0.0
 40
0.001
  0
CIRCLE
  5
415
100
AcDbEntity
100
AcDbCircle
  8
STRUKTUR
 62
     7
 10
1.726609
 20
1.985235
 30
0.0
 40
0.001
  0
CIRCLE
  5
416
100
AcDbEntity
100
AcDbCircle
  8
STRUKTUR
 62
     7
 10
1.736904
 20
1.985235
 30
0.0
 40
0.001
  0
CIRCLE
  5
417
100
AcDbEntity
100
AcDbCircle
  8
STRUKTUR
 62
     7
 10
1.747198
 20
1.985235
 30
0.0
 40
0.001
  0
CIRCLE
  5
418
100
AcDbEntity
100
AcDbCircle
  8
STRUKTUR
 62
     7
 10
1.757492
 20
1.985235
 30
0.0
 40
0.001
  0
CIRCLE
  5
419
100
AcDbEntity
100
AcDbCircle
  8
STRUKTUR
 62
     7
 10
1.767786
 20
1.985235
 30
0.0
 40
0.001
  0
CIRCLE
  5
41a
100
AcDbEntity
100
AcDbCircle
  8
STRUKTUR
 62
     7
 10
1.77808
 20
1.985235
 30
0.0
 40
0.001
  0
CIRCLE
  5
41b
100
AcDbEntity
100
AcDbCircle
  8
STRUKTUR
 62
     7
 10
1.788375
 20
1.985235
 30
0.0
 40
0.001
  0
CIRCLE
  5
41c
100
AcDbEntity
100
AcDbCircle
  8
STRUKTUR
 62
     7
 10
1.798669
 20
1.985235
 30
0.0
 40
0.001
  0
CIRCLE
  5
41d
100
AcDbEntity
100
AcDbCircle
  8
STRUKTUR
 62
     7
 10
1.808963
 20
1.985235
 30
0.0
 40
0.001
  0
CIRCLE
  5
41e
100
AcDbEntity
100
AcDbCircle
  8
STRUKTUR
 62
     7
 10
1.819257
 20
1.985235
 30
0.0
 40
0.001
  0
CIRCLE
  5
41f
100
AcDbEntity
100
AcDbCircle
  8
STRUKTUR
 62
     7
 10
1.829552
 20
1.985235
 30
0.0
 40
0.001
  0
CIRCLE
  5
420
100
AcDbEntity
100
AcDbCircle
  8
STRUKTUR
 62
     7
 10
1.839846
 20
1.985235
 30
0.0
 40
0.001
  0
CIRCLE
  5
421
100
AcDbEntity
100
AcDbCircle
  8
STRUKTUR
 62
     7
 10
1.85014
 20
1.985235
 30
0.0
 40
0.001
  0
CIRCLE
  5
422
100
AcDbEntity
100
AcDbCircle
  8
STRUKTUR
 62
     7
 10
1.860434
 20
1.985235
 30
0.0
 40
0.001
  0
CIRCLE
  5
423
100
AcDbEntity
100
AcDbCircle
  8
STRUKTUR
 62
     7
 10
1.870728
 20
1.985235
 30
0.0
 40
0.001
  0
CIRCLE
  5
424
100
AcDbEntity
100
AcDbCircle
  8
STRUKTUR
 62
     7
 10
1.881023
 20
1.985235
 30
0.0
 40
0.001
  0
CIRCLE
  5
425
100
AcDbEntity
100
AcDbCircle
  8
STRUKTUR
 62
     7
 10
1.891317
 20
1.985235
 30
0.0
 40
0.001
  0
CIRCLE
  5
426
100
AcDbEntity
100
AcDbCircle
  8
STRUKTUR
 62
     7
 10
1.901611
 20
1.985235
 30
0.0
 40
0.001
  0
CIRCLE
  5
427
100
AcDbEntity
100
AcDbCircle
  8
STRUKTUR
 62
     7
 10
1.911905
 20
1.985235
 30
0.0
 40
0.001
  0
CIRCLE
  5
428
100
AcDbEntity
100
AcDbCircle
  8
STRUKTUR
 62
     7
 10
1.206961
 20
2.030198
 30
0.0
 40
0.001
  0
INSERT
  5
429
100
AcDbEntity
100
AcDbInsert
  8
TEXT
  2
TEXT_1
 10
0.0
 20
0.0
 30
0.0
  0
INSERT
  5
42a
100
AcDbEntity
100
AcDbInsert
  8
TEXT
  2
TEXT_2
 10
0.0
 20
0.0
 30
0.0
  0
INSERT
  5
42b
100
AcDbEntity
100
AcDbInsert
  8
TEXT
  2
TEXT_3
 10
0.0
 20
0.0
 30
0.0
  0
INSERT
  5
42c
100
AcDbEntity
100
AcDbInsert
  8
TEXT
  2
TEXT_4
 10
0.0
 20
0.0
 30
0.0
  0
ENDSEC
  0
SECTION
  2
OBJECTS
  0
DICTIONARY
  5
42d
100
AcDbDictionary
  3
ACAD_MLINESTYLE
350
42e
  3
ACAD_GROUP
350
42f
  0
DICTIONARY
  5
42e
102
{ACAD_REACTORS
330
42d
102
}
100
AcDbDictionary
  3
STANDARD
350
430
  0
DICTIONARY
  5
42f
102
{ACAD_REACTORS
330
42d
102
}
100
AcDbDictionary
  0
MLINESTYLE
  5
430
102
{ACAD_REACTORS
330
42e
102
}
100
AcDbMlineStyle
  2
STANDARD
 70
     0
  3

 62
     0
 51
90.0
 52
90.0
 71
     2
 49
0.5
 62
   256
  6
BYLAYER
 49
-0.5
 62
   256
  6
BYLAYER
  0
ENDSEC
  0
EOF
